  0
SECTION
  2
HEADER
  9
$ACADVER
  1
AC1014
  9
$ACADMAINTVER
 70
     0
  9
$DWGCODEPAGE
  3
ANSI_932
  9
$INSBASE
 10
0.0
 20
0.0
 30
0.0
  9
$EXTMIN
 10
18.834854
 20
121.385183
 30
1.000000E+20
  9
$EXTMAX
 10
197.153857
 20
245.258759
 30
-1.000000E+20
  9
$LIMMIN
 10
18.834854
 20
121.385183
  9
$LIMMAX
 10
197.153857
 20
245.258759
  9
$ORTHOMODE
 70
     0
  9
$REGENMODE
 70
     1
  9
$FILLMODE
 70
     1
  9
$QTEXTMODE
 70
     0
  9
$MIRRTEXT
 70
     1
  9
$DRAGMODE
 70
     2
  9
$LTSCALE
 40
1.0
  9
$OSMODE
 70
     0
  9
$ATTMODE
 70
     1
  9
$TEXTSIZE
 40
0.2
  9
$TRACEWID
 40
0.05
  9
$TEXTSTYLE
  7
STANDARD
  9
$CLAYER
  8
0
  9
$CELTYPE
  6
CONTINUOUS
  9
$CECOLOR
 62
   256
  9
$CELTSCALE
 40
1.0
  9
$DELOBJ
 70
     1
  9
$DISPSILH
 70
     0
  9
$DIMSCALE
 40
1.0
  9
$DIMASZ
 40
0.18
  9
$DIMEXO
 40
0.0625
  9
$DIMDLI
 40
0.38
  9
$DIMRND
 40
0.0
  9
$DIMDLE
 40
0.0
  9
$DIMEXE
 40
0.18
  9
$DIMTP
 40
0.0
  9
$DIMTM
 40
0.0
  9
$DIMTXT
 40
0.18
  9
$DIMCEN
 40
0.09
  9
$DIMTSZ
 40
0.0
  9
$DIMTOL
 70
     0
  9
$DIMLIM
 70
     0
  9
$DIMTIH
 70
     1
  9
$DIMTOH
 70
     1
  9
$DIMSE1
 70
     0
  9
$DIMSE2
 70
     0
  9
$DIMTAD
 70
     0
  9
$DIMZIN
 70
     0
  9
$DIMBLK
  1

  9
$DIMASO
 70
     1
  9
$DIMSHO
 70
     1
  9
$DIMPOST
  1

  9
$DIMAPOST
  1

  9
$DIMALT
 70
     0
  9
$DIMALTD
 70
     2
  9
$DIMALTF
 40
25.4
  9
$DIMLFAC
 40
1.0
  9
$DIMTOFL
 70
     0
  9
$DIMTVP
 40
0.0
  9
$DIMTIX
 70
     0
  9
$DIMSOXD
 70
     0
  9
$DIMSAH
 70
     0
  9
$DIMBLK1
  1

  9
$DIMBLK2
  1

  9
$DIMSTYLE
  2
STANDARD
  9
$DIMCLRD
 70
     0
  9
$DIMCLRE
 70
     0
  9
$DIMCLRT
 70
     0
  9
$DIMTFAC
 40
1.0
  9
$DIMGAP
 40
0.09
  9
$DIMJUST
 70
     0
  9
$DIMSD1
 70
     0
  9
$DIMSD2
 70
     0
  9
$DIMTOLJ
 70
     1
  9
$DIMTZIN
 70
     0
  9
$DIMALTZ
 70
     0
  9
$DIMALTTZ
 70
     0
  9
$DIMFIT
 70
     3
  9
$DIMUPT
 70
     0
  9
$DIMUNIT
 70
     2
  9
$DIMDEC
 70
     4
  9
$DIMTDEC
 70
     4
  9
$DIMALTU
 70
     2
  9
$DIMALTTD
 70
     2
  9
$DIMTXSTY
  7
STANDARD
  9
$DIMAUNIT
 70
     0
  9
$LUNITS
 70
     2
  9
$LUPREC
 70
     4
  9
$SKETCHINC
 40
0.1
  9
$FILLETRAD
 40
0.0
  9
$AUNITS
 70
     0
  9
$AUPREC
 70
     0
  9
$MENU
  1
acad
  9
$ELEVATION
 40
0.0
  9
$PELEVATION
 40
0.0
  9
$THICKNESS
 40
0.0
  9
$LIMCHECK
 70
     0
  9
$BLIPMODE
 70
     1
  9
$CHAMFERA
 40
0.0
  9
$CHAMFERB
 40
0.0
  9
$CHAMFERC
 40
0.0
  9
$CHAMFERD
 40
0.0
  9
$SKPOLY
 70
     0
  9
$TDCREATE
 40
0.000000000
  9
$TDUPDATE
 40
0.000000000
  9
$TDINDWG
 40
0.0000000000
  9
$TDUSRTIMER
 40
0.0000000000
  9
$USRTIMER
 70
     1
  9
$ANGBASE
 50
0.0
  9
$ANGDIR
 70
     0
  9
$PDMODE
 70
     0
  9
$PDSIZE
 40
0.0
  9
$PLINEWID
 40
0.0
  9
$COORDS
 70
     0
  9
$SPLFRAME
 70
     0
  9
$SPLINETYPE
 70
     6
  9
$SPLINESEGS
 70
     8
  9
$ATTDIA
 70
     0
  9
$ATTREQ
 70
     1
  9
$HANDLING
 70
     1
  9
$HANDSEED
  5
237
  9
$SURFTAB1
 70
     6
  9
$SURFTAB2
 70
     6
  9
$SURFTYPE
 70
     6
  9
$SURFU
 70
     6
  9
$SURFV
 70
     6
  9
$UCSNAME
  2

  9
$UCSORG
 10
0.0
 20
0.0
 30
0.0
  9
$UCSXDIR
 10
1.0
 20
0.0
 30
0.0
  9
$UCSYDIR
 10
0.0
 20
1.0
 30
0.0
  9
$PUCSNAME
  2

  9
$PUCSORG
 10
0.0
 20
0.0
 30
0.0
  9
$PUCSXDIR
 10
1.0
 20
0.0
 30
0.0
  9
$PUCSYDIR
 10
0.0
 20
1.0
 30
0.0
  9
$USERI1
 70
     0
  9
$USERI2
 70
     0
  9
$USERI3
 70
     0
  9
$USERI4
 70
     0
  9
$USERI5
 70
     0
  9
$USERR1
 40
0.0
  9
$USERR2
 40
0.0
  9
$USERR3
 40
0.0
  9
$USERR4
 40
0.0
  9
$USERR5
 40
0.0
  9
$WORLDVIEW
 70
     1
  9
$SHADEDGE
 70
     3
  9
$SHADEDIF
 70
    70
  9
$TILEMODE
 70
     1
  9
$MAXACTVP
 70
    16
  9
$PINSBASE
 10
0.0
 20
0.0
 30
0.0
  9
$PLIMCHECK
 70
     0
  9
$PEXTMIN
 10
1.000000E+20
 20
1.000000E+20
 30
1.000000E+20
  9
$PEXTMAX
 10
-1.000000E+20
 20
-1.000000E+20
 30
-1.000000E+20
  9
$PLIMMIN
 10
0.0
 20
0.0
  9
$PLIMMAX
 10
12.0
 20
9.0
  9
$UNITMODE
 70
     0
  9
$VISRETAIN
 70
     0
  9
$PLINEGEN
 70
     1
  9
$PSLTSCALE
 70
     0
  9
$TREEDEPTH
 70
  3020
  9
$PICKSTYLE
 70
     1
  9
$CMLSTYLE
  2
STANDARD
  9
$CMLJUST
 70
     0
  9
$CMLSCALE
 40
1.0
  9
$PROXYGRAPHICS
 70
     0
  9
$MEASUREMENT
 70
     0
  0
ENDSEC
  0
SECTION
  2
CLASSES
  0
CLASS
  1
LWPOLYLINE
  2
AcDbPolyline
  3
"AutoCAD"
 90
        0
280
     0
281
     1
  0
CLASS
  1
IMAGE
  2
AcDbRasterImage
  3
ISM
 90
      127
280
     0
281
     1
  0
CLASS
  1
OLE2FRAME
  2
AcDbOle2Frame
  3
""
 90
        0
280
     0
281
     1
  0
CLASS
  1
HATCH
  2
AcDbHatch
  3
"ACAD_SEDONA"
 90
        0
280
     0
281
     1
  0
CLASS
  1
DICTIONARYVAR
  2
AcDbDictionaryVar
  3
"AutoCAD"
 90
        0
280
     0
281
     0
  0
CLASS
  1
RASTERVARIABLES
  2
AcDbRasterVariables
  3
ISM
 90
        0
280
     0
281
     0
  0
CLASS
  1
IMAGEDEF
  2
AcDbRasterImageDef
  3
ISM
 90
        0
280
     0
281
     0
  0
CLASS
  1
IMAGEDEF_REACTOR
  2
AcDbRasterImageDefReactor
  3
ISM
 90
        1
280
     0
281
     0
  0
CLASS
  1
IDBUFFER
  2
AcDbIdBuffer
  3
"Acad"
 90
        0
280
     0
281
     0
  0
CLASS
  1
SPATIAL_FILTER
  2
AcDbSpatialFilter
  3
"Acad"
 90
        0
280
     0
281
     0
  0
CLASS
  1
XRECORD
  2
AcDbXrecord
  3
"<Built In>"
 90
        0
280
     0
281
     0
  0
CLASS
  1
SORTENTSTABLE
  2
AcDbSortentsTable
  3
"AutoCAD"
 90
        0
280
     0
281
     0
  0
CLASS
  1
LAYER_INDEX
  2
AcDbLayerIndex
  3
"Acad"
 90
        0
280
     0
281
     0
  0
CLASS
  1
SPATIAL_INDEX
  2
AcDbSpatialIndex
  3
"Acad"
 90
        0
280
     0
281
     0
  0
CLASS
  1
OBJECT_PTR
  2
CAseDLPNTableRecord
  3
"ASE-LPNTableRecord"
 90
        1
280
     0
281
     0
  0
CLASS
  1
LAYOUT
  2
AcDbLayout
  3
"AutoCAD 2000"
 90
        1
280
     0
281
     0
  0
CLASS
  1
PLOTSETTINGS
  2
AcDbPlotSettings
  3
"AutoCAD 2000"
 90
        1
280
     0
281
     0
  0
CLASS
  1
ACDBDICTIONARYWDFLT
  2
AcDbDictionaryWithDefault
  3
"AutoCAD 2000"
 90
        1
280
     0
281
     0
  0
CLASS
  1
ACDBPLACEHOLDER
  2
AcDbPlaceHolder
  3
"AutoCAD 2000"
 90
        1
280
     0
281
     0
  0
CLASS
  1
VBA_PROJECT
  2
AcDbVbaProject
  3
"acadvba"
 90
        1
280
     0
281
     0
  0
CLASS
  1
WIPEOUT
  2
AcDbWipeout
  3
WipeOut|AutoCAD Express Tool|expresstools@autodesk.com
 90
      127
280
     0
281
     1
  0
CLASS
  1
WIPEOUTVARIABLES
  2
AcDbWipeoutVariables
  3
WipeOut|AutoCAD Express Tool|expresstools@autodesk.com
 90
        0
280
     0
281
     0
  0
CLASS
  1
RTEXT
  2
RText
  3
RText|AutoCAD Express Tool|expresstools@autodesk.com
 90
        0
280
     0
281
     1
  0
CLASS
  1
ARCALIGNEDTEXT
  2
AcDbArcAlignedText
  3
ATEXT|AutoCAD Express Tool|expresstools@autodesk.com
 90
        0
280
     0
281
     1
  0
ENDSEC
  0
SECTION
  2
TABLES
  0
TABLE
  2
VPORT
  5
7
100
AcDbSymbolTable
 70
     1
  0
VPORT
  5
15
100
AcDbSymbolTableRecord
100
AcDbViewportTableRecord
  2
*ACTIVE
 70
     0
 10
0.0
 20
0.0
 11
1.0
 21
1.0
 12
6.591288
 22
4.579184
 13
0.0
 23
0.0
 14
1.0
 24
1.0
 15
0.0
 25
0.0
 16
0.0
 26
0.0
 36
1.0
 17
0.0
 27
0.0
 37
0.0
 40
9.158369
 41
0.688564
 42
50.0
 43
0.0
 44
0.0
 50
0.0
 51
0.0
 71
     0
 72
   100
 73
     1
 74
     1
 75
     0
 76
     0
 77
     0
 78
     0
  0
ENDTAB
  0
TABLE
  2
LTYPE
  5
4
100
AcDbSymbolTable
 70
     6
  0
LTYPE
  5
11
100
AcDbSymbolTableRecord
100
AcDbLinetypeTableRecord
  2
BYBLOCK
 70
    64
  3

 72
    65
 73
     0
 40
0.0
  0
LTYPE
  5
12
100
AcDbSymbolTableRecord
100
AcDbLinetypeTableRecord
  2
BYLAYER
 70
    64
  3

 72
    65
 73
     0
 40
0.0
  0
LTYPE
  5
13
100
AcDbSymbolTableRecord
100
AcDbLinetypeTableRecord
  2
CONTINUOUS
 70
    64
  3
Solid line
 72
    65
 73
     0
 40
0.0
  0
LTYPE
  5
166
100
AcDbSymbolTableRecord
100
AcDbLinetypeTableRecord
  2
AI9-LTYPE1
 70
    64
  3
Illustrator Dash Style No.1
 72
    65
 73
     6
 40
10.119784
 49
7.005991
 74
     0
 49
-0.622759
 74
     0
 49
0.622759
 74
     0
 49
-0.622759
 74
     0
 49
0.622759
 74
     0
 49
-0.622759
 74
     0
  0
LTYPE
  5
203
100
AcDbSymbolTableRecord
100
AcDbLinetypeTableRecord
  2
AI9-LTYPE2
 70
    64
  3
Illustrator Dash Style No.2
 72
    65
 73
     6
 40
7.055556
 49
2.116667
 74
     0
 49
-0.705556
 74
     0
 49
0.705556
 74
     0
 49
-0.705556
 74
     0
 49
2.116667
 74
     0
 49
-0.705556
 74
     0
  0
LTYPE
  5
205
100
AcDbSymbolTableRecord
100
AcDbLinetypeTableRecord
  2
AI9-LTYPE3
 70
    64
  3
Illustrator Dash Style No.3
 72
    65
 73
     6
 40
7.055556
 49
2.116667
 74
     0
 49
-0.705556
 74
     0
 49
0.705556
 74
     0
 49
-0.705556
 74
     0
 49
2.116667
 74
     0
 49
-0.705556
 74
     0
  0
ENDTAB
  0
TABLE
  2
LAYER
  5
2
100
AcDbSymbolTable
 70
     4
  0
LAYER
  5
14
100
AcDbSymbolTableRecord
100
AcDbLayerTableRecord
  2
0
 70
     0
 62
     7
  6
CONTINUOUS
  0
LAYER
  5
21
100
AcDbSymbolTableRecord
100
AcDbLayerTableRecord
  2
NON_PRINTING_NOTES
 70
     4
 62
    -4
  6
CONTINUOUS
  0
LAYER
  5
24
100
AcDbSymbolTableRecord
100
AcDbLayerTableRecord
  2
TEXT
 70
     4
 62
     5
  6
CONTINUOUS
  0
LAYER
  5
158
100
AcDbSymbolTableRecord
100
AcDbLayerTableRecord
  2
LINE_ART
 70
     4
 62
     1
  6
CONTINUOUS
  0
ENDTAB
  0
TABLE
  2
STYLE
  5
3
100
AcDbSymbolTable
 70
     5
  0
STYLE
  5
17
100
AcDbSymbolTableRecord
100
AcDbTextStyleTableRecord
  2
STANDARD
 70
     0
 40
0.0
 41
1.0
 50
0.0
 71
     0
 42
0.0
  3
txt
  4

  0
STYLE
  5
1D
100
AcDbSymbolTableRecord
100
AcDbTextStyleTableRecord
  2
STD
 70
     0
 40
0.0
 41
1.0
 50
0.0
 71
     0
 42
0.0
  3
txt
  4

  0
STYLE
  5
1E
100
AcDbSymbolTableRecord
100
AcDbTextStyleTableRecord
  2
TATESTD
 70
     4
 40
0.0
 41
1.0
 50
0.0
 71
     0
 42
0.0
  3
txt
  4

  0
STYLE
  5
1F
100
AcDbSymbolTableRecord
100
AcDbTextStyleTableRecord
  2
KANJISTD
 70
     0
 40
0.0
 41
1.0
 50
0.0
 71
     0
 42
0.0
  3
txt
  4
extfont
  0
STYLE
  5
20
100
AcDbSymbolTableRecord
100
AcDbTextStyleTableRecord
  2
KANJITATE
 70
     4
 40
0.0
 41
1.0
 50
0.0
 71
     0
 42
0.0
  3
txt
  4
extfont
  0
ENDTAB
  0
TABLE
  2
VIEW
  5
5
100
AcDbSymbolTable
 70
     0
  0
ENDTAB
  0
TABLE
  2
UCS
  5
6
100
AcDbSymbolTable
 70
     0
  0
ENDTAB
  0
TABLE
  2
APPID
  5
8
100
AcDbSymbolTable
 70
     1
  0
APPID
  5
16
100
AcDbSymbolTableRecord
100
AcDbRegAppTableRecord
  2
ACAD
 70
     0
  0
ENDTAB
  0
TABLE
  2
DIMSTYLE
  5
9
100
AcDbSymbolTable
 70
     1
  0
DIMSTYLE
105
18
100
AcDbSymbolTableRecord
100
AcDbDimStyleTableRecord
  2
STANDARD
 70
     0
  3

  4

  5

  6

  7

 40
1.0
 41
0.18
 42
0.0625
 43
0.38
 44
0.18
 45
0.0
 46
0.0
 47
0.0
 48
0.0
 71
     0
 72
     0
 73
     1
 74
     1
 75
     0
 76
     0
 77
     0
 78
     0
140
0.18
141
0.09
142
0.0
143
25.4
144
1.0
145
0.0
146
1.0
147
0.09
170
     0
171
     2
172
     0
173
     0
174
     0
175
     0
176
     0
177
     0
178
     0
270
     2
271
     4
272
     4
273
     2
274
     2
275
     0
280
     0
281
     0
282
     0
283
     1
284
     0
285
     0
286
     0
287
     0
288
     0
340
17
  0
ENDTAB
  0
TABLE
  2
BLOCK_RECORD
  5
1
100
AcDbSymbolTable
 70
    61
  0
BLOCK_RECORD
  5
A
100
AcDbSymbolTableRecord
100
AcDbBlockTableRecord
  2
*MODEL_SPACE
  0
BLOCK_RECORD
  5
B
100
AcDbSymbolTableRecord
100
AcDbBlockTableRecord
  2
*PAPER_SPACE
  0
BLOCK_RECORD
  5
25
100
AcDbSymbolTableRecord
100
AcDbBlockTableRecord
  2
AI9-BLK1
  0
BLOCK_RECORD
  5
3A
100
AcDbSymbolTableRecord
100
AcDbBlockTableRecord
  2
AI9-BLK2
  0
BLOCK_RECORD
  5
41
100
AcDbSymbolTableRecord
100
AcDbBlockTableRecord
  2
AI9-BLK3
  0
BLOCK_RECORD
  5
47
100
AcDbSymbolTableRecord
100
AcDbBlockTableRecord
  2
AI9-BLK4
  0
BLOCK_RECORD
  5
50
100
AcDbSymbolTableRecord
100
AcDbBlockTableRecord
  2
AI9-BLK5
  0
BLOCK_RECORD
  5
56
100
AcDbSymbolTableRecord
100
AcDbBlockTableRecord
  2
AI9-BLK6
  0
BLOCK_RECORD
  5
64
100
AcDbSymbolTableRecord
100
AcDbBlockTableRecord
  2
AI9-BLK7
  0
BLOCK_RECORD
  5
6A
100
AcDbSymbolTableRecord
100
AcDbBlockTableRecord
  2
AI9-BLK8
  0
BLOCK_RECORD
  5
74
100
AcDbSymbolTableRecord
100
AcDbBlockTableRecord
  2
AI9-BLK9
  0
BLOCK_RECORD
  5
7A
100
AcDbSymbolTableRecord
100
AcDbBlockTableRecord
  2
AI9-BLK10
  0
BLOCK_RECORD
  5
82
100
AcDbSymbolTableRecord
100
AcDbBlockTableRecord
  2
AI9-BLK11
  0
BLOCK_RECORD
  5
85
100
AcDbSymbolTableRecord
100
AcDbBlockTableRecord
  2
AI9-BLK12
  0
BLOCK_RECORD
  5
8C
100
AcDbSymbolTableRecord
100
AcDbBlockTableRecord
  2
AI9-BLK13
  0
BLOCK_RECORD
  5
8F
100
AcDbSymbolTableRecord
100
AcDbBlockTableRecord
  2
AI9-BLK14
  0
BLOCK_RECORD
  5
96
100
AcDbSymbolTableRecord
100
AcDbBlockTableRecord
  2
AI9-BLK15
  0
BLOCK_RECORD
  5
9C
100
AcDbSymbolTableRecord
100
AcDbBlockTableRecord
  2
AI9-BLK16
  0
BLOCK_RECORD
  5
AE
100
AcDbSymbolTableRecord
100
AcDbBlockTableRecord
  2
AI9-BLK17
  0
BLOCK_RECORD
  5
B4
100
AcDbSymbolTableRecord
100
AcDbBlockTableRecord
  2
AI9-BLK18
  0
BLOCK_RECORD
  5
BD
100
AcDbSymbolTableRecord
100
AcDbBlockTableRecord
  2
AI9-BLK19
  0
BLOCK_RECORD
  5
C4
100
AcDbSymbolTableRecord
100
AcDbBlockTableRecord
  2
AI9-BLK20
  0
BLOCK_RECORD
  5
CA
100
AcDbSymbolTableRecord
100
AcDbBlockTableRecord
  2
AI9-BLK21
  0
BLOCK_RECORD
  5
CF
100
AcDbSymbolTableRecord
100
AcDbBlockTableRecord
  2
AI9-BLK22
  0
BLOCK_RECORD
  5
D5
100
AcDbSymbolTableRecord
100
AcDbBlockTableRecord
  2
AI9-BLK23
  0
BLOCK_RECORD
  5
DB
100
AcDbSymbolTableRecord
100
AcDbBlockTableRecord
  2
AI9-BLK24
  0
BLOCK_RECORD
  5
EC
100
AcDbSymbolTableRecord
100
AcDbBlockTableRecord
  2
AI9-BLK25
  0
BLOCK_RECORD
  5
FD
100
AcDbSymbolTableRecord
100
AcDbBlockTableRecord
  2
AI9-BLK26
  0
BLOCK_RECORD
  5
103
100
AcDbSymbolTableRecord
100
AcDbBlockTableRecord
  2
AI9-BLK27
  0
BLOCK_RECORD
  5
10D
100
AcDbSymbolTableRecord
100
AcDbBlockTableRecord
  2
AI9-BLK28
  0
BLOCK_RECORD
  5
113
100
AcDbSymbolTableRecord
100
AcDbBlockTableRecord
  2
AI9-BLK29
  0
BLOCK_RECORD
  5
121
100
AcDbSymbolTableRecord
100
AcDbBlockTableRecord
  2
AI9-BLK30
  0
BLOCK_RECORD
  5
12B
100
AcDbSymbolTableRecord
100
AcDbBlockTableRecord
  2
AI9-BLK31
  0
BLOCK_RECORD
  5
137
100
AcDbSymbolTableRecord
100
AcDbBlockTableRecord
  2
AI9-BLK32
  0
BLOCK_RECORD
  5
13D
100
AcDbSymbolTableRecord
100
AcDbBlockTableRecord
  2
AI9-BLK33
  0
BLOCK_RECORD
  5
14C
100
AcDbSymbolTableRecord
100
AcDbBlockTableRecord
  2
AI9-BLK34
  0
BLOCK_RECORD
  5
152
100
AcDbSymbolTableRecord
100
AcDbBlockTableRecord
  2
AI9-BLK35
  0
BLOCK_RECORD
  5
15A
100
AcDbSymbolTableRecord
100
AcDbBlockTableRecord
  2
AI9-BLK36
  0
BLOCK_RECORD
  5
15F
100
AcDbSymbolTableRecord
100
AcDbBlockTableRecord
  2
AI9-BLK37
  0
BLOCK_RECORD
  5
16C
100
AcDbSymbolTableRecord
100
AcDbBlockTableRecord
  2
AI9-BLK38
  0
BLOCK_RECORD
  5
175
100
AcDbSymbolTableRecord
100
AcDbBlockTableRecord
  2
AI9-BLK39
  0
BLOCK_RECORD
  5
17A
100
AcDbSymbolTableRecord
100
AcDbBlockTableRecord
  2
AI9-BLK40
  0
BLOCK_RECORD
  5
1A1
100
AcDbSymbolTableRecord
100
AcDbBlockTableRecord
  2
AI9-BLK41
  0
BLOCK_RECORD
  5
1A6
100
AcDbSymbolTableRecord
100
AcDbBlockTableRecord
  2
AI9-BLK42
  0
BLOCK_RECORD
  5
1AB
100
AcDbSymbolTableRecord
100
AcDbBlockTableRecord
  2
AI9-BLK43
  0
BLOCK_RECORD
  5
1B0
100
AcDbSymbolTableRecord
100
AcDbBlockTableRecord
  2
AI9-BLK44
  0
BLOCK_RECORD
  5
1B5
100
AcDbSymbolTableRecord
100
AcDbBlockTableRecord
  2
AI9-BLK45
  0
BLOCK_RECORD
  5
1BA
100
AcDbSymbolTableRecord
100
AcDbBlockTableRecord
  2
AI9-BLK46
  0
BLOCK_RECORD
  5
1C3
100
AcDbSymbolTableRecord
100
AcDbBlockTableRecord
  2
AI9-BLK47
  0
BLOCK_RECORD
  5
1C8
100
AcDbSymbolTableRecord
100
AcDbBlockTableRecord
  2
AI9-BLK48
  0
BLOCK_RECORD
  5
1CD
100
AcDbSymbolTableRecord
100
AcDbBlockTableRecord
  2
AI9-BLK49
  0
BLOCK_RECORD
  5
1D2
100
AcDbSymbolTableRecord
100
AcDbBlockTableRecord
  2
AI9-BLK50
  0
BLOCK_RECORD
  5
1D7
100
AcDbSymbolTableRecord
100
AcDbBlockTableRecord
  2
AI9-BLK51
  0
BLOCK_RECORD
  5
1DC
100
AcDbSymbolTableRecord
100
AcDbBlockTableRecord
  2
AI9-BLK52
  0
BLOCK_RECORD
  5
1E1
100
AcDbSymbolTableRecord
100
AcDbBlockTableRecord
  2
AI9-BLK53
  0
BLOCK_RECORD
  5
1E6
100
AcDbSymbolTableRecord
100
AcDbBlockTableRecord
  2
AI9-BLK54
  0
BLOCK_RECORD
  5
1EB
100
AcDbSymbolTableRecord
100
AcDbBlockTableRecord
  2
AI9-BLK55
  0
BLOCK_RECORD
  5
1F0
100
AcDbSymbolTableRecord
100
AcDbBlockTableRecord
  2
AI9-BLK56
  0
BLOCK_RECORD
  5
200
100
AcDbSymbolTableRecord
100
AcDbBlockTableRecord
  2
AI9-BLK57
  0
BLOCK_RECORD
  5
209
100
AcDbSymbolTableRecord
100
AcDbBlockTableRecord
  2
AI9-BLK58
  0
BLOCK_RECORD
  5
212
100
AcDbSymbolTableRecord
100
AcDbBlockTableRecord
  2
AI9-BLK59
  0
BLOCK_RECORD
  5
21A
100
AcDbSymbolTableRecord
100
AcDbBlockTableRecord
  2
AI9-BLK60
  0
BLOCK_RECORD
  5
222
100
AcDbSymbolTableRecord
100
AcDbBlockTableRecord
  2
AI9-BLK61
  0
ENDTAB
  0
ENDSEC
  0
SECTION
  2
BLOCKS
  0
BLOCK
  5
D
100
AcDbEntity
  8
0
100
AcDbBlockBegin
  2
*MODEL_SPACE
 70
     0
 10
0.0
 20
0.0
 30
0.0
  3
*MODEL_SPACE
  1

  0
ENDBLK
  5
E
100
AcDbEntity
  8
0
100
AcDbBlockEnd
  0
BLOCK
  5
F
100
AcDbEntity
 67
     1
  8
0
100
AcDbBlockBegin
  2
*PAPER_SPACE
 70
     0
 10
0.0
 20
0.0
 30
0.0
  3
*PAPER_SPACE
  1

  0
ENDBLK
  5
10
100
AcDbEntity
 67
     1
  8
0
100
AcDbBlockEnd
  0
BLOCK
  5
27
100
AcDbEntity
  8
TEXT
 62
     7
100
AcDbBlockBegin
  2
AI9-BLK1
 70
     0
 10
0.0
 20
0.0
 30
0.0
  3
AI9-BLK1
  1

  0
LINE
  5
29
100
AcDbEntity
  8
TEXT
 62
     7
100
AcDbLine
 10
-1.812895
 20
-0.000947
 30
0.0
 11
3.008171
 21
-0.000947
 31
0.0
  0
HATCH
  5
28
100
AcDbEntity
  8
TEXT
 62
     7
100
AcDbHatch
 10
0.0
 20
0.0
 30
0.0
210
0.0
220
0.0
230
1.0
  2
SOLID
 70
     1
 71
     0
 91
        1
 92
        1
 93
        1
 72
     4
 94
        3
 73
     0
 74
     0
 95
       20
 96
       16
 40
0.0
 40
0.0
 40
0.0
 40
0.0
 40
1.0
 40
1.0
 40
1.0
 40
2.0
 40
2.0
 40
2.0
 40
3.0
 40
3.0
 40
3.0
 40
4.0
 40
4.0
 40
4.0
 40
5.0
 40
5.0
 40
5.0
 40
5.0
 10
-2.2294074164496527
 20
-0.1818149142795139
 10
-1.9377800835503471
 20
-0.2698371039496528
 10
-1.748299831814236
 20
-0.3509691026475694
 10
-1.5143778483072916
 20
-0.4448479546440972
 10
-1.5143778483072916
 20
-0.4448479546440972
 10
-1.5143778483072916
 20
0.4448479546440972
 10
-1.5143778483072916
 20
0.4448479546440972
 10
-1.5980936686197915
 20
0.4052293565538194
 10
-1.9377800835503471
 20
0.2698371039496528
 10
-2.2294074164496527
 20
0.1818149142795139
 10
-2.541533067491319
 20
0.087591552734375
 10
-2.8245476616753469
 20
0.0229960123697917
 10
-3.0081712510850691
 20
0.0000861273871528
 10
-2.8245476616753469
 20
-0.0229960123697917
 10
-2.541533067491319
 20
-0.0874192979600694
 10
-2.2294074164496527
 20
-0.1818149142795139
 97
        0
 75
     0
 76
     1
 98
        1
 10
0.0
 20
0.0
  0
ENDBLK
  5
2A
100
AcDbEntity
  8
TEXT
100
AcDbBlockEnd
  0
BLOCK
  5
3C
100
AcDbEntity
  8
TEXT
 62
     7
100
AcDbBlockBegin
  2
AI9-BLK2
 70
     0
 10
0.0
 20
0.0
 30
0.0
  3
AI9-BLK2
  1

  0
LINE
  5
3E
100
AcDbEntity
  8
TEXT
 62
     7
100
AcDbLine
 10
-0.000861
 20
0.641132
 30
0.0
 11
-0.000861
 21
-1.748386
 31
0.0
  0
HATCH
  5
3D
100
AcDbEntity
  8
TEXT
 62
     7
100
AcDbHatch
 10
0.0
 20
0.0
 30
0.0
210
0.0
220
0.0
230
1.0
  2
SOLID
 70
     1
 71
     0
 91
        1
 92
        1
 93
        1
 72
     4
 94
        3
 73
     0
 74
     0
 95
       20
 96
       16
 40
0.0
 40
0.0
 40
0.0
 40
0.0
 40
1.0
 40
1.0
 40
1.0
 40
2.0
 40
2.0
 40
2.0
 40
3.0
 40
3.0
 40
3.0
 40
4.0
 40
4.0
 40
4.0
 40
5.0
 40
5.0
 40
5.0
 40
5.0
 10
-0.1817287868923611
 20
0.9694498697916666
 10
-0.2699232313368055
 20
0.6779947916666667
 10
-0.3508829752604166
 20
0.4881700303819444
 10
-0.44493408203125
 20
0.2545925564236111
 10
-0.44493408203125
 20
0.2545925564236111
 10
0.44493408203125
 20
0.2545925564236111
 10
0.44493408203125
 20
0.2545925564236111
 10
0.4053154839409722
 20
0.3379638671875
 10
0.2699232313368055
 20
0.6779947916666667
 10
0.1820732964409722
 20
0.9694498697916666
 10
0.0876776801215278
 20
1.2815755208333333
 10
0.0229098849826389
 20
1.5647623697916666
 10
0.0001722547743056
 20
1.7483859592013888
 10
-0.0229098849826389
 20
1.5647623697916666
 10
-0.0873331705729167
 20
1.2815755208333333
 10
-0.1817287868923611
 20
0.9694498697916666
 97
        0
 75
     0
 76
     1
 98
        1
 10
0.0
 20
0.0
  0
ENDBLK
  5
3F
100
AcDbEntity
  8
TEXT
100
AcDbBlockEnd
  0
BLOCK
  5
43
100
AcDbEntity
  8
TEXT
 62
     7
100
AcDbBlockBegin
  2
AI9-BLK3
 70
     0
 10
0.0
 20
0.0
 30
0.0
  3
AI9-BLK3
  1

  0
LINE
  5
45
100
AcDbEntity
  8
TEXT
 62
     7
100
AcDbLine
 10
-0.019637
 20
-3.260266
 30
0.0
 11
-0.019637
 21
4.265889
 31
0.0
  0
HATCH
  5
44
100
AcDbEntity
  8
TEXT
 62
     7
100
AcDbHatch
 10
0.0
 20
0.0
 30
0.0
210
0.0
220
0.0
230
1.0
  2
SOLID
 70
     1
 71
     0
 91
        1
 92
        1
 93
        1
 72
     4
 94
        3
 73
     0
 74
     0
 95
       20
 96
       16
 40
0.0
 40
0.0
 40
0.0
 40
0.0
 40
1.0
 40
1.0
 40
1.0
 40
2.0
 40
2.0
 40
2.0
 40
3.0
 40
3.0
 40
3.0
 40
4.0
 40
4.0
 40
4.0
 40
5.0
 40
5.0
 40
5.0
 40
5.0
 10
0.1819010416666667
 20
-3.4872979058159719
 10
0.2697509765625
 20
-3.1958428276909721
 10
0.3510552300347222
 20
-3.0056735568576385
 10
0.4447618272569444
 20
-2.7720960828993051
 10
0.4447618272569444
 20
-2.7720960828993051
 10
-0.4447618272569444
 20
-2.7720960828993051
 10
-0.4447618272569444
 20
-2.7720960828993051
 10
-0.4051432291666666
 20
-2.855467393663194
 10
-0.2697509765625
 20
-3.1958428276909721
 10
-0.1815565321180555
 20
-3.4872979058159719
 10
-0.0875054253472222
 20
-3.7994235568576387
 10
-0.0230821397569444
 20
-4.0826104058159718
 10
0.0
 20
-4.265889485677083
 10
0.0230821397569444
 20
-4.0826104058159718
 10
0.0875054253472222
 20
-3.7994235568576387
 10
0.1819010416666667
 20
-3.4872979058159719
 97
        0
 75
     0
 76
     1
 98
        1
 10
0.0
 20
0.0
  0
ENDBLK
  5
46
100
AcDbEntity
  8
TEXT
100
AcDbBlockEnd
  0
BLOCK
  5
49
100
AcDbEntity
  8
TEXT
 62
     7
100
AcDbBlockBegin
  2
AI9-BLK4
 70
     0
 10
0.0
 20
0.0
 30
0.0
  3
AI9-BLK4
  1

  0
LINE
  5
4B
100
AcDbEntity
  8
TEXT
 62
     7
100
AcDbLine
 10
-0.001378
 20
2.472717
 30
0.0
 11
-0.021704
 21
-3.491432
 31
0.0
  0
HATCH
  5
4A
100
AcDbEntity
  8
TEXT
 62
     7
100
AcDbHatch
 10
0.0
 20
0.0
 30
0.0
210
0.0
220
0.0
230
1.0
  2
SOLID
 70
     1
 71
     0
 91
        1
 92
        1
 93
        1
 72
     4
 94
        3
 73
     0
 74
     0
 95
       20
 96
       16
 40
0.0
 40
0.0
 40
0.0
 40
0.0
 40
1.0
 40
1.0
 40
1.0
 40
2.0
 40
2.0
 40
2.0
 40
3.0
 40
3.0
 40
3.0
 40
4.0
 40
4.0
 40
4.0
 40
5.0
 40
5.0
 40
5.0
 40
5.0
 10
-0.1819010416666667
 20
2.7128404405381943
 10
-0.2697509765625
 20
2.421385362413194
 10
-0.3510552300347222
 20
2.2317328559027776
 10
-0.4447618272569444
 20
1.9978108723958332
 10
-0.4447618272569444
 20
1.9978108723958332
 10
0.4447618272569444
 20
1.9978108723958332
 10
0.4447618272569444
 20
1.9978108723958332
 10
0.4051432291666666
 20
2.0815266927083331
 10
0.2697509765625
 20
2.421385362413194
 10
0.1815565321180555
 20
2.7128404405381943
 10
0.0875054253472222
 20
3.0249660915798606
 10
0.0230821397569444
 20
3.3081529405381942
 10
0.0
 20
3.4916042751736107
 10
-0.0230821397569444
 20
3.3081529405381942
 10
-0.0875054253472222
 20
3.0249660915798606
 10
-0.1819010416666667
 20
2.7128404405381943
 97
        0
 75
     0
 76
     1
 98
        1
 10
0.0
 20
0.0
  0
ENDBLK
  5
4C
100
AcDbEntity
  8
TEXT
100
AcDbBlockEnd
  0
BLOCK
  5
52
100
AcDbEntity
  8
TEXT
 62
     7
100
AcDbBlockBegin
  2
AI9-BLK5
 70
     0
 10
0.0
 20
0.0
 30
0.0
  3
AI9-BLK5
  1

  0
LINE
  5
54
100
AcDbEntity
  8
TEXT
 62
     7
100
AcDbLine
 10
0.000517
 20
-8.935544
 30
0.0
 11
0.000517
 21
10.160276
 31
0.0
  0
HATCH
  5
53
100
AcDbEntity
  8
TEXT
 62
     7
100
AcDbHatch
 10
0.0
 20
0.0
 30
0.0
210
0.0
220
0.0
230
1.0
  2
SOLID
 70
     1
 71
     0
 91
        1
 92
        1
 93
        1
 72
     4
 94
        3
 73
     0
 74
     0
 95
       20
 96
       16
 40
0.0
 40
0.0
 40
0.0
 40
0.0
 40
1.0
 40
1.0
 40
1.0
 40
2.0
 40
2.0
 40
2.0
 40
3.0
 40
3.0
 40
3.0
 40
4.0
 40
4.0
 40
4.0
 40
5.0
 40
5.0
 40
5.0
 40
5.0
 10
0.1817287868923611
 20
-9.381339518229165
 10
0.2699232313368055
 20
-9.0898844401041661
 10
0.3508829752604166
 20
-8.9000596788194439
 10
0.44493408203125
 20
-8.6664822048611097
 10
0.44493408203125
 20
-8.6664822048611097
 10
-0.44493408203125
 20
-8.6664822048611097
 10
-0.44493408203125
 20
-8.6664822048611097
 10
-0.4053154839409722
 20
-8.7498535156249986
 10
-0.2699232313368055
 20
-9.0898844401041661
 10
-0.1820732964409722
 20
-9.381339518229165
 10
-0.0876776801215278
 20
-9.6934651692708318
 10
-0.0229098849826389
 20
-9.9766520182291654
 10
-0.0001722547743056
 20
-10.160275607638887
 10
0.0229098849826389
 20
-9.9766520182291654
 10
0.0873331705729167
 20
-9.6934651692708318
 10
0.1817287868923611
 20
-9.381339518229165
 97
        0
 75
     0
 76
     1
 98
        1
 10
0.0
 20
0.0
  0
ENDBLK
  5
55
100
AcDbEntity
  8
TEXT
100
AcDbBlockEnd
  0
BLOCK
  5
58
100
AcDbEntity
  8
TEXT
 62
     7
100
AcDbBlockBegin
  2
AI9-BLK6
 70
     0
 10
0.0
 20
0.0
 30
0.0
  3
AI9-BLK6
  1

  0
LINE
  5
5A
100
AcDbEntity
  8
TEXT
 62
     7
100
AcDbLine
 10
-0.030317
 20
2.462554
 30
0.0
 11
-0.047887
 21
-3.569291
 31
0.0
  0
HATCH
  5
59
100
AcDbEntity
  8
TEXT
 62
     7
100
AcDbHatch
 10
0.0
 20
0.0
 30
0.0
210
0.0
220
0.0
230
1.0
  2
SOLID
 70
     1
 71
     0
 91
        1
 92
        1
 93
        1
 72
     4
 94
        3
 73
     0
 74
     0
 95
       20
 96
       16
 40
0.0
 40
0.0
 40
0.0
 40
0.0
 40
1.0
 40
1.0
 40
1.0
 40
2.0
 40
2.0
 40
2.0
 40
3.0
 40
3.0
 40
3.0
 40
4.0
 40
4.0
 40
4.0
 40
5.0
 40
5.0
 40
5.0
 40
5.0
 10
-0.1819010416666667
 20
2.790871853298611
 10
-0.2697509765625
 20
2.4990722656249997
 10
-0.3510552300347222
 20
2.3095920138888886
 10
-0.4447618272569444
 20
2.0756700303819442
 10
-0.4447618272569444
 20
2.0756700303819442
 10
0.4447618272569444
 20
2.0756700303819442
 10
0.4447618272569444
 20
2.0756700303819442
 10
0.4051432291666666
 20
2.1593858506944441
 10
0.2697509765625
 20
2.4990722656249997
 10
0.1815565321180555
 20
2.790871853298611
 10
0.0875054253472222
 20
3.1029975043402773
 10
0.0230821397569444
 20
3.3858398437499999
 10
0.0
 20
3.5694634331597217
 10
-0.0230821397569444
 20
3.3858398437499999
 10
-0.0875054253472222
 20
3.1029975043402773
 10
-0.1819010416666667
 20
2.790871853298611
 97
        0
 75
     0
 76
     1
 98
        1
 10
0.0
 20
0.0
  0
ENDBLK
  5
5B
100
AcDbEntity
  8
TEXT
100
AcDbBlockEnd
  0
BLOCK
  5
66
100
AcDbEntity
  8
TEXT
 62
     7
100
AcDbBlockBegin
  2
AI9-BLK7
 70
     0
 10
0.0
 20
0.0
 30
0.0
  3
AI9-BLK7
  1

  0
LINE
  5
68
100
AcDbEntity
  8
TEXT
 62
     7
100
AcDbLine
 10
0.001034
 20
-3.943945
 30
0.0
 11
0.001034
 21
5.139393
 31
0.0
  0
HATCH
  5
67
100
AcDbEntity
  8
TEXT
 62
     7
100
AcDbHatch
 10
0.0
 20
0.0
 30
0.0
210
0.0
220
0.0
230
1.0
  2
SOLID
 70
     1
 71
     0
 91
        1
 92
        1
 93
        1
 72
     4
 94
        3
 73
     0
 74
     0
 95
       20
 96
       16
 40
0.0
 40
0.0
 40
0.0
 40
0.0
 40
1.0
 40
1.0
 40
1.0
 40
2.0
 40
2.0
 40
2.0
 40
3.0
 40
3.0
 40
3.0
 40
4.0
 40
4.0
 40
4.0
 40
5.0
 40
5.0
 40
5.0
 40
5.0
 10
0.1817287868923611
 20
-4.3604573567708327
 10
0.2699232313368055
 20
-4.0690022786458329
 10
0.3510552300347222
 20
-3.8791775173611107
 10
0.44493408203125
 20
-3.6456000434027773
 10
0.44493408203125
 20
-3.6456000434027773
 10
-0.44493408203125
 20
-3.6456000434027773
 10
-0.44493408203125
 20
-3.6456000434027773
 10
-0.4049709743923611
 20
-3.7289713541666663
 10
-0.2697509765625
 20
-4.0690022786458329
 10
-0.1817287868923611
 20
-4.3604573567708327
 10
-0.0873331705729167
 20
-4.6725830078124995
 10
-0.0229098849826389
 20
-4.955769856770833
 10
0.0001722547743056
 20
-5.1393934461805548
 10
0.0230821397569444
 20
-4.955769856770833
 10
0.0876776801215278
 20
-4.6725830078124995
 10
0.1817287868923611
 20
-4.3604573567708327
 97
        0
 75
     0
 76
     1
 98
        1
 10
0.0
 20
0.0
  0
ENDBLK
  5
69
100
AcDbEntity
  8
TEXT
100
AcDbBlockEnd
  0
BLOCK
  5
6C
100
AcDbEntity
  8
TEXT
 62
     7
100
AcDbBlockBegin
  2
AI9-BLK8
 70
     0
 10
0.0
 20
0.0
 30
0.0
  3
AI9-BLK8
  1

  0
LINE
  5
6E
100
AcDbEntity
  8
TEXT
 62
     7
100
AcDbLine
 10
-0.001034
 20
2.5703
 30
0.0
 11
-0.001034
 21
-3.765575
 31
0.0
  0
HATCH
  5
6D
100
AcDbEntity
  8
TEXT
 62
     7
100
AcDbHatch
 10
0.0
 20
0.0
 30
0.0
210
0.0
220
0.0
230
1.0
  2
SOLID
 70
     1
 71
     0
 91
        1
 92
        1
 93
        1
 72
     4
 94
        3
 73
     0
 74
     0
 95
       20
 96
       16
 40
0.0
 40
0.0
 40
0.0
 40
0.0
 40
1.0
 40
1.0
 40
1.0
 40
2.0
 40
2.0
 40
2.0
 40
3.0
 40
3.0
 40
3.0
 40
4.0
 40
4.0
 40
4.0
 40
5.0
 40
5.0
 40
5.0
 40
5.0
 10
-0.1817287868923611
 20
2.9868116590711802
 10
-0.2699232313368055
 20
2.6953565809461804
 10
-0.3510552300347222
 20
2.5057040744357635
 10
-0.44493408203125
 20
2.2717820909288191
 10
-0.44493408203125
 20
2.2717820909288191
 10
0.44493408203125
 20
2.2717820909288191
 10
0.44493408203125
 20
2.2717820909288191
 10
0.4049709743923611
 20
2.355497911241319
 10
0.2697509765625
 20
2.6953565809461804
 10
0.1817287868923611
 20
2.9868116590711802
 10
0.0873331705729167
 20
3.298937310112847
 10
0.0229098849826389
 20
3.5821241590711801
 10
-0.0001722547743056
 20
3.7655754937065971
 10
-0.0230821397569444
 20
3.5821241590711801
 10
-0.0876776801215278
 20
3.298937310112847
 10
-0.1817287868923611
 20
2.9868116590711802
 97
        0
 75
     0
 76
     1
 98
        1
 10
0.0
 20
0.0
  0
ENDBLK
  5
6F
100
AcDbEntity
  8
TEXT
100
AcDbBlockEnd
  0
BLOCK
  5
76
100
AcDbEntity
  8
TEXT
 62
     7
100
AcDbBlockBegin
  2
AI9-BLK9
 70
     0
 10
0.0
 20
0.0
 30
0.0
  3
AI9-BLK9
  1

  0
LINE
  5
78
100
AcDbEntity
  8
TEXT
 62
     7
100
AcDbLine
 10
-0.000947
 20
9.183505
 30
0.0
 11
-0.000947
 21
-10.378781
 31
0.0
  0
HATCH
  5
77
100
AcDbEntity
  8
TEXT
 62
     7
100
AcDbHatch
 10
0.0
 20
0.0
 30
0.0
210
0.0
220
0.0
230
1.0
  2
SOLID
 70
     1
 71
     0
 91
        1
 92
        1
 93
        1
 72
     4
 94
        3
 73
     0
 74
     0
 95
       20
 96
       16
 40
0.0
 40
0.0
 40
0.0
 40
0.0
 40
1.0
 40
1.0
 40
1.0
 40
2.0
 40
2.0
 40
2.0
 40
3.0
 40
3.0
 40
3.0
 40
4.0
 40
4.0
 40
4.0
 40
5.0
 40
5.0
 40
5.0
 40
5.0
 10
-0.1818149142795139
 20
9.6000169542100693
 10
-0.2698371039496528
 20
9.3085618760850686
 10
-0.3509691026475694
 20
9.1189093695746521
 10
-0.4448479546440972
 20
8.8849873860677082
 10
-0.4448479546440972
 20
8.8849873860677082
 10
0.4448479546440972
 20
8.8849873860677082
 10
0.4448479546440972
 20
8.8849873860677082
 10
0.4050571017795139
 20
8.9687032063802068
 10
0.2698371039496528
 20
9.3085618760850686
 10
0.1818149142795139
 20
9.6000169542100693
 10
0.0874192979600694
 20
9.9121426052517361
 10
0.0229960123697917
 20
10.195329454210068
 10
-0.0000861273871528
 20
10.378780788845486
 10
-0.0229960123697917
 20
10.195329454210068
 10
-0.087591552734375
 20
9.9121426052517361
 10
-0.1818149142795139
 20
9.6000169542100693
 97
        0
 75
     0
 76
     1
 98
        1
 10
0.0
 20
0.0
  0
ENDBLK
  5
79
100
AcDbEntity
  8
TEXT
100
AcDbBlockEnd
  0
BLOCK
  5
7C
100
AcDbEntity
  8
TEXT
 62
     7
100
AcDbBlockBegin
  2
AI9-BLK10
 70
     0
 10
0.0
 20
0.0
 30
0.0
  3
AI9-BLK10
  1

  0
LINE
  5
7E
100
AcDbEntity
  8
TEXT
 62
     7
100
AcDbLine
 10
0.001034
 20
-11.509633
 30
0.0
 11
0.001034
 21
12.705082
 31
0.0
  0
HATCH
  5
7D
100
AcDbEntity
  8
TEXT
 62
     7
100
AcDbHatch
 10
0.0
 20
0.0
 30
0.0
210
0.0
220
0.0
230
1.0
  2
SOLID
 70
     1
 71
     0
 91
        1
 92
        1
 93
        1
 72
     4
 94
        3
 73
     0
 74
     0
 95
       20
 96
       16
 40
0.0
 40
0.0
 40
0.0
 40
0.0
 40
1.0
 40
1.0
 40
1.0
 40
2.0
 40
2.0
 40
2.0
 40
3.0
 40
3.0
 40
3.0
 40
4.0
 40
4.0
 40
4.0
 40
5.0
 40
5.0
 40
5.0
 40
5.0
 10
0.1817287868923611
 20
-11.925800916883679
 10
0.2699232313368055
 20
-11.63434583875868
 10
0.3510552300347222
 20
-11.444865587022569
 10
0.44493408203125
 20
-11.211288113064235
 10
0.44493408203125
 20
-11.211288113064235
 10
-0.44493408203125
 20
-11.211288113064235
 10
-0.44493408203125
 20
-11.211288113064235
 10
-0.4051432291666666
 20
-11.294659423828124
 10
-0.2697509765625
 20
-11.63434583875868
 10
-0.1817287868923611
 20
-11.925800916883679
 10
-0.0875054253472222
 20
-12.237926567925346
 10
-0.0229098849826389
 20
-12.521113416883679
 10
0.0
 20
-12.705081515842013
 10
0.0230821397569444
 20
-12.521113416883679
 10
0.0875054253472222
 20
-12.237926567925346
 10
0.1817287868923611
 20
-11.925800916883679
 97
        0
 75
     0
 76
     1
 98
        1
 10
0.0
 20
0.0
  0
ENDBLK
  5
7F
100
AcDbEntity
  8
TEXT
100
AcDbBlockEnd
  0
BLOCK
  5
84
100
AcDbEntity
  8
TEXT
 62
     7
100
AcDbBlockBegin
  2
AI9-BLK11
 70
     0
 10
0.0
 20
0.0
 30
0.0
  3
AI9-BLK11
  1

  0
INSERT
  5
86
100
AcDbEntity
  8
TEXT
 62
     7
100
AcDbBlockReference
  2
AI9-BLK12
 10
0.0
 20
0.0
 30
0.0
  0
ENDBLK
  5
8B
100
AcDbEntity
  8
TEXT
100
AcDbBlockEnd
  0
BLOCK
  5
87
100
AcDbEntity
  8
TEXT
 62
     7
100
AcDbBlockBegin
  2
AI9-BLK12
 70
     0
 10
0.0
 20
0.0
 30
0.0
  3
AI9-BLK12
  1

  0
LINE
  5
89
100
AcDbEntity
  8
TEXT
 62
     7
100
AcDbLine
 10
-2.286682
 20
1.843557
 30
0.0
 11
3.18189
 21
-2.568922
 31
0.0
  0
HATCH
  5
88
100
AcDbEntity
  8
TEXT
 62
     7
100
AcDbHatch
 10
0.0
 20
0.0
 30
0.0
210
0.0
220
0.0
230
1.0
  2
SOLID
 70
     1
 71
     0
 91
        1
 92
        1
 93
        1
 72
     4
 94
        3
 73
     0
 74
     0
 95
       20
 96
       16
 40
0.0
 40
0.0
 40
0.0
 40
0.0
 40
1.0
 40
1.0
 40
1.0
 40
2.0
 40
2.0
 40
2.0
 40
3.0
 40
3.0
 40
3.0
 40
4.0
 40
4.0
 40
4.0
 40
5.0
 40
5.0
 40
5.0
 40
5.0
 10
-2.723347981770833
 20
1.9682691786024304
 10
-2.5540215386284721
 20
1.7150546603732637
 10
-2.4589369032118054
 20
1.5321200900607637
 10
-2.3378417968749998
 20
1.3109449598524305
 10
-2.3378417968749998
 20
1.3109449598524305
 10
-1.7730183919270832
 20
1.9985860188802083
 10
-1.7730183919270832
 20
1.9985860188802083
 10
-1.8629353841145833
 20
2.0209791395399304
 10
-2.2112345377604163
 20
2.1322557237413191
 10
-2.4925265842013888
 20
2.2493889702690972
 10
-2.793455674913194
 20
2.3744459364149302
 10
-3.0532158745659719
 20
2.5043260362413191
 10
-3.2096232096354163
 20
2.603200276692708
 10
-3.0823269314236108
 20
2.4688415527343746
 10
-2.9047322591145832
 20
2.2393981933593747
 10
-2.723347981770833
 20
1.9682691786024304
 97
        0
 75
     0
 76
     1
 98
        1
 10
0.0
 20
0.0
  0
ENDBLK
  5
8A
100
AcDbEntity
  8
TEXT
100
AcDbBlockEnd
  0
BLOCK
  5
8E
100
AcDbEntity
  8
TEXT
 62
     7
100
AcDbBlockBegin
  2
AI9-BLK13
 70
     0
 10
0.0
 20
0.0
 30
0.0
  3
AI9-BLK13
  1

  0
INSERT
  5
90
100
AcDbEntity
  8
TEXT
 62
     7
100
AcDbBlockReference
  2
AI9-BLK14
 10
0.0
 20
0.0
 30
0.0
  0
ENDBLK
  5
94
100
AcDbEntity
  8
TEXT
100
AcDbBlockEnd
  0
BLOCK
  5
91
100
AcDbEntity
  8
TEXT
 62
     7
100
AcDbBlockBegin
  2
AI9-BLK14
 70
     0
 10
0.0
 20
0.0
 30
0.0
  3
AI9-BLK14
  1

  0
LINE
  5
92
100
AcDbEntity
  8
TEXT
 62
     7
100
AcDbLine
 10
-2.2487
 20
-0.001378
 30
0.0
 11
2.2487
 21
0.001378
 31
0.0
  0
ENDBLK
  5
93
100
AcDbEntity
  8
TEXT
100
AcDbBlockEnd
  0
BLOCK
  5
98
100
AcDbEntity
  8
TEXT
 62
     7
100
AcDbBlockBegin
  2
AI9-BLK15
 70
     0
 10
0.0
 20
0.0
 30
0.0
  3
AI9-BLK15
  1

  0
LINE
  5
9A
100
AcDbEntity
  8
TEXT
 62
     7
100
AcDbLine
 10
-0.001034
 20
7.467417
 30
0.0
 11
-0.001034
 21
-8.662865
 31
0.0
  0
HATCH
  5
99
100
AcDbEntity
  8
TEXT
 62
     7
100
AcDbHatch
 10
0.0
 20
0.0
 30
0.0
210
0.0
220
0.0
230
1.0
  2
SOLID
 70
     1
 71
     0
 91
        1
 92
        1
 93
        1
 72
     4
 94
        3
 73
     0
 74
     0
 95
       20
 96
       16
 40
0.0
 40
0.0
 40
0.0
 40
0.0
 40
1.0
 40
1.0
 40
1.0
 40
2.0
 40
2.0
 40
2.0
 40
3.0
 40
3.0
 40
3.0
 40
4.0
 40
4.0
 40
4.0
 40
5.0
 40
5.0
 40
5.0
 40
5.0
 10
-0.1819010416666667
 20
7.8839287651909711
 10
-0.2697509765625
 20
7.5924736870659713
 10
-0.3510552300347222
 20
7.4026489257812491
 10
-0.4447618272569444
 20
7.1690714518229157
 10
-0.4447618272569444
 20
7.1690714518229157
 10
0.4447618272569444
 20
7.1690714518229157
 10
0.4447618272569444
 20
7.1690714518229157
 10
0.4051432291666666
 20
7.2524427625868046
 10
0.2697509765625
 20
7.5924736870659713
 10
0.1815565321180555
 20
7.8839287651909711
 10
0.0875054253472222
 20
8.1960544162326379
 10
0.0230821397569444
 20
8.4792412651909714
 10
0.0
 20
8.6628648546006932
 10
-0.0230821397569444
 20
8.4792412651909714
 10
-0.0875054253472222
 20
8.1960544162326379
 10
-0.1819010416666667
 20
7.8839287651909711
 97
        0
 75
     0
 76
     1
 98
        1
 10
0.0
 20
0.0
  0
ENDBLK
  5
9B
100
AcDbEntity
  8
TEXT
100
AcDbBlockEnd
  0
BLOCK
  5
9E
100
AcDbEntity
  8
TEXT
 62
     7
100
AcDbBlockBegin
  2
AI9-BLK16
 70
     0
 10
0.0
 20
0.0
 30
0.0
  3
AI9-BLK16
  1

  0
LINE
  5
9F
100
AcDbEntity
  8
TEXT
 62
     7
100
AcDbLine
 10
6.675217
 20
0.0
 30
0.0
 11
-6.675217
 21
0.0
 31
0.0
  0
ENDBLK
  5
A0
100
AcDbEntity
  8
TEXT
100
AcDbBlockEnd
  0
BLOCK
  5
B0
100
AcDbEntity
  8
TEXT
 62
     7
100
AcDbBlockBegin
  2
AI9-BLK17
 70
     0
 10
0.0
 20
0.0
 30
0.0
  3
AI9-BLK17
  1

  0
LINE
  5
B2
100
AcDbEntity
  8
TEXT
 62
     7
100
AcDbLine
 10
-4.307145
 20
-9.059912
 30
0.0
 11
4.779984
 21
10.120829
 31
0.0
  0
HATCH
  5
B1
100
AcDbEntity
  8
TEXT
 62
     7
100
AcDbHatch
 10
0.0
 20
0.0
 30
0.0
210
0.0
220
0.0
230
1.0
  2
SOLID
 70
     1
 71
     0
 91
        1
 92
        1
 93
        1
 72
     4
 94
        3
 73
     0
 74
     0
 95
       20
 96
       16
 40
0.0
 40
0.0
 40
0.0
 40
0.0
 40
1.0
 40
1.0
 40
1.0
 40
2.0
 40
2.0
 40
2.0
 40
3.0
 40
3.0
 40
3.0
 40
4.0
 40
4.0
 40
4.0
 40
5.0
 40
5.0
 40
5.0
 40
5.0
 10
-4.322130669487847
 20
-9.5138034396701379
 10
-4.1176642523871525
 20
-9.2879774305555554
 10
-3.9631517198350692
 20
-9.1513793945312489
 10
-3.7781500922309026
 20
-8.9801581488715261
 10
-3.7781500922309026
 20
-8.9801581488715261
 10
-4.5822353786892354
 20
-8.5993028428819436
 10
-4.5822353786892354
 20
-8.5993028428819436
 10
-4.5822353786892354
 20
-8.6919759114583321
 10
-4.6053175184461805
 20
-9.056983778211805
 10
-4.6506205240885414
 20
-9.358085123697915
 10
-4.6990241156684025
 20
-9.6805460611979157
 10
-4.7618971082899302
 20
-9.9640774197048607
 10
-4.8197747124565966
 20
-10.139777289496527
 10
-4.7203837076822914
 20
-9.9837144639756943
 10
-4.5408942328559023
 20
-9.7554768880208318
 10
-4.322130669487847
 20
-9.5138034396701379
 97
        0
 75
     0
 76
     1
 98
        1
 10
0.0
 20
0.0
  0
ENDBLK
  5
B3
100
AcDbEntity
  8
TEXT
100
AcDbBlockEnd
  0
BLOCK
  5
B6
100
AcDbEntity
  8
TEXT
 62
     7
100
AcDbBlockBegin
  2
AI9-BLK18
 70
     0
 10
0.0
 20
0.0
 30
0.0
  3
AI9-BLK18
  1

  0
LINE
  5
B7
100
AcDbEntity
  8
TEXT
 62
     7
100
AcDbLine
 10
-2.884578
 20
0.0
 30
0.0
 11
2.884578
 21
0.0
 31
0.0
  0
ENDBLK
  5
B8
100
AcDbEntity
  8
TEXT
100
AcDbBlockEnd
  0
BLOCK
  5
BF
100
AcDbEntity
  8
TEXT
 62
     7
100
AcDbBlockBegin
  2
AI9-BLK19
 70
     0
 10
0.0
 20
0.0
 30
0.0
  3
AI9-BLK19
  1

  0
LINE
  5
C1
100
AcDbEntity
  8
TEXT
 62
     7
100
AcDbLine
 10
2.393652
 20
0.001034
 30
0.0
 11
-3.5891
 21
-0.00913
 31
0.0
  0
HATCH
  5
C0
100
AcDbEntity
  8
TEXT
 62
     7
100
AcDbHatch
 10
0.0
 20
0.0
 30
0.0
210
0.0
220
0.0
230
1.0
  2
SOLID
 70
     1
 71
     0
 91
        1
 92
        1
 93
        1
 72
     4
 94
        3
 73
     0
 74
     0
 95
       20
 96
       16
 40
0.0
 40
0.0
 40
0.0
 40
0.0
 40
1.0
 40
1.0
 40
1.0
 40
2.0
 40
2.0
 40
2.0
 40
3.0
 40
3.0
 40
3.0
 40
4.0
 40
4.0
 40
4.0
 40
5.0
 40
5.0
 40
5.0
 40
5.0
 10
2.8101643880208331
 20
0.1817287868923611
 10
2.5187093098958333
 20
0.2699232313368055
 10
2.3288845486111107
 20
0.3510552300347222
 10
2.0953070746527778
 20
0.44493408203125
 10
2.0953070746527778
 20
0.44493408203125
 10
2.0953070746527778
 20
-0.44493408203125
 10
2.0953070746527778
 20
-0.44493408203125
 10
2.1786783854166663
 20
-0.4049709743923611
 10
2.5187093098958333
 20
-0.2697509765625
 10
2.8101643880208331
 20
-0.1817287868923611
 10
3.1222900390624999
 20
-0.0873331705729167
 10
3.405476888020833
 20
-0.0229098849826389
 10
3.5891004774305553
 20
0.0001722547743056
 10
3.405476888020833
 20
0.0230821397569444
 10
3.1222900390624999
 20
0.0876776801215278
 10
2.8101643880208331
 20
0.1817287868923611
 97
        0
 75
     0
 76
     1
 98
        1
 10
0.0
 20
0.0
  0
ENDBLK
  5
C2
100
AcDbEntity
  8
TEXT
100
AcDbBlockEnd
  0
BLOCK
  5
C6
100
AcDbEntity
  8
TEXT
 62
     7
100
AcDbBlockBegin
  2
AI9-BLK20
 70
     0
 10
0.0
 20
0.0
 30
0.0
  3
AI9-BLK20
  1

  0
LINE
  5
C8
100
AcDbEntity
  8
TEXT
 62
     7
100
AcDbLine
 10
-3.567224
 20
-5.477013
 30
0.0
 11
4.182174
 21
6.454903
 31
0.0
  0
HATCH
  5
C7
100
AcDbEntity
  8
TEXT
 62
     7
100
AcDbHatch
 10
0.0
 20
0.0
 30
0.0
210
0.0
220
0.0
230
1.0
  2
SOLID
 70
     1
 71
     0
 91
        1
 92
        1
 93
        1
 72
     4
 94
        3
 73
     0
 74
     0
 95
       20
 96
       16
 40
0.0
 40
0.0
 40
0.0
 40
0.0
 40
1.0
 40
1.0
 40
1.0
 40
2.0
 40
2.0
 40
2.0
 40
3.0
 40
3.0
 40
3.0
 40
4.0
 40
4.0
 40
4.0
 40
5.0
 40
5.0
 40
5.0
 40
5.0
 10
-3.6426717122395829
 20
-5.9248752170138888
 10
-3.4097832573784719
 20
-5.7283325195312491
 10
-3.2385620117187499
 20
-5.6134385850694439
 10
-3.0322007921006944
 20
-5.4684000651041664
 10
-3.0322007921006944
 20
-5.4684000651041664
 10
-3.7784084743923607
 20
-4.9838473849826386
 10
-3.7784084743923607
 20
-4.9838473849826386
 10
-3.790810818142361
 20
-5.0756591796874995
 10
-3.8624688042534721
 20
-5.4342936197916663
 10
-3.9475626627604163
 20
-5.7267822265624995
 10
-4.0381686740451386
 20
-6.0399414062499996
 10
-4.1384209526909714
 20
-6.3124484592013888
 10
-4.2190361870659716
 20
-6.4788465711805552
 10
-4.0998358832465271
 20
-6.3374254014756941
 10
-3.8914076063368053
 20
-6.135370551215277
 10
-3.6426717122395829
 20
-5.9248752170138888
 97
        0
 75
     0
 76
     1
 98
        1
 10
0.0
 20
0.0
  0
ENDBLK
  5
C9
100
AcDbEntity
  8
TEXT
100
AcDbBlockEnd
  0
BLOCK
  5
CC
100
AcDbEntity
  8
TEXT
 62
     7
100
AcDbBlockBegin
  2
AI9-BLK21
 70
     0
 10
0.0
 20
0.0
 30
0.0
  3
AI9-BLK21
  1

  0
LINE
  5
CD
100
AcDbEntity
  8
TEXT
 62
     7
100
AcDbLine
 10
6.269902
 20
-2.852539
 30
0.0
 11
-6.269902
 21
2.852539
 31
0.0
  0
ENDBLK
  5
CE
100
AcDbEntity
  8
TEXT
100
AcDbBlockEnd
  0
BLOCK
  5
D1
100
AcDbEntity
  8
TEXT
 62
     7
100
AcDbBlockBegin
  2
AI9-BLK22
 70
     0
 10
0.0
 20
0.0
 30
0.0
  3
AI9-BLK22
  1

  0
LINE
  5
D2
100
AcDbEntity
  8
TEXT
 62
     7
100
AcDbLine
 10
1.928564
 20
0.0
 30
0.0
 11
-1.928564
 21
0.0
 31
0.0
  0
ENDBLK
  5
D3
100
AcDbEntity
  8
TEXT
100
AcDbBlockEnd
  0
BLOCK
  5
D7
100
AcDbEntity
  8
TEXT
 62
     7
100
AcDbBlockBegin
  2
AI9-BLK23
 70
     0
 10
0.0
 20
0.0
 30
0.0
  3
AI9-BLK23
  1

  0
LINE
  5
D9
100
AcDbEntity
  8
TEXT
 62
     7
100
AcDbLine
 10
1.995916
 20
-2.858223
 30
0.0
 11
-2.641182
 21
3.815271
 31
0.0
  0
HATCH
  5
D8
100
AcDbEntity
  8
TEXT
 62
     7
100
AcDbHatch
 10
0.0
 20
0.0
 30
0.0
210
0.0
220
0.0
230
1.0
  2
SOLID
 70
     1
 71
     0
 91
        1
 92
        1
 93
        1
 72
     4
 94
        3
 73
     0
 74
     0
 95
       20
 96
       16
 40
0.0
 40
0.0
 40
0.0
 40
0.0
 40
1.0
 40
1.0
 40
1.0
 40
2.0
 40
2.0
 40
2.0
 40
3.0
 40
3.0
 40
3.0
 40
4.0
 40
4.0
 40
4.0
 40
5.0
 40
5.0
 40
5.0
 40
5.0
 10
2.3821112738715278
 20
-3.0971408420138884
 10
2.2880601671006944
 20
-2.8074083116319444
 10
2.2463745117187499
 20
-2.6053534613715277
 10
2.1902194552951388
 20
-2.3597181532118054
 10
2.1902194552951388
 20
-2.3597181532118054
 10
1.4595147026909721
 20
-2.8675252278645829
 10
1.4595147026909721
 20
-2.8675252278645829
 10
1.539785427517361
 20
-2.9135172526041666
 10
1.8450208875868055
 20
-3.1153998480902776
 10
2.0834214952256942
 20
-3.304707845052083
 10
2.3390475802951385
 20
-3.5071072048611107
 10
2.5536770290798607
 20
-3.7027886284722218
 10
2.6773559570312497
 20
-3.8404201931423607
 10
2.5912285698784721
 20
-3.6764336480034721
 10
2.4827080620659721
 20
-3.4071994357638884
 10
2.3821112738715278
 20
-3.0971408420138884
 97
        0
 75
     0
 76
     1
 98
        1
 10
0.0
 20
0.0
  0
ENDBLK
  5
DA
100
AcDbEntity
  8
TEXT
100
AcDbBlockEnd
  0
BLOCK
  5
DD
100
AcDbEntity
  8
TEXT
 62
     7
100
AcDbBlockBegin
  2
AI9-BLK24
 70
     0
 10
0.0
 20
0.0
 30
0.0
  3
AI9-BLK24
  1

  0
LINE
  5
DE
100
AcDbEntity
  8
TEXT
 62
     7
100
AcDbLine
 10
2.007457
 20
0.0
 30
0.0
 11
-2.007457
 21
0.0
 31
0.0
  0
ENDBLK
  5
DF
100
AcDbEntity
  8
TEXT
100
AcDbBlockEnd
  0
BLOCK
  5
EE
100
AcDbEntity
  8
TEXT
 62
     7
100
AcDbBlockBegin
  2
AI9-BLK25
 70
     0
 10
0.0
 20
0.0
 30
0.0
  3
AI9-BLK25
  1

  0
LINE
  5
F2
100
AcDbEntity
  8
TEXT
 62
     7
100
AcDbLine
 10
0.010163
 20
-14.494809
 30
0.0
 11
0.029456
 21
-19.135869
 31
0.0
  0
LINE
  5
F1
100
AcDbEntity
  8
TEXT
 62
     7
100
AcDbLine
 10
0.000172
 20
18.606702
 30
0.0
 11
0.000172
 21
7.46578
 31
0.0
  0
HATCH
  5
F0
100
AcDbEntity
  8
TEXT
 62
     7
100
AcDbHatch
 10
0.0
 20
0.0
 30
0.0
210
0.0
220
0.0
230
1.0
  2
SOLID
 70
     1
 71
     0
 91
        1
 92
        1
 93
        1
 72
     4
 94
        3
 73
     0
 74
     0
 95
       20
 96
       16
 40
0.0
 40
0.0
 40
0.0
 40
0.0
 40
1.0
 40
1.0
 40
1.0
 40
2.0
 40
2.0
 40
2.0
 40
3.0
 40
3.0
 40
3.0
 40
4.0
 40
4.0
 40
4.0
 40
5.0
 40
5.0
 40
5.0
 40
5.0
 10
0.1806952582465278
 20
-19.111064317491319
 10
0.2685451931423611
 20
-18.819609239366319
 10
0.3498494466145833
 20
-18.630128987630208
 10
0.4435560438368055
 20
-18.396551513671874
 10
0.4435560438368055
 20
-18.396551513671874
 10
-0.4459676106770833
 20
-18.396551513671874
 10
-0.4459676106770833
 20
-18.396551513671874
 10
-0.4063490125868055
 20
-18.479922824435761
 10
-0.2709567599826389
 20
-18.819609239366319
 10
-0.1827623155381944
 20
-19.111064317491319
 10
-0.0887112087673611
 20
-19.423189968532984
 10
-0.0242879231770833
 20
-19.706376817491318
 10
-0.0012057834201389
 20
-19.890344916449649
 10
0.0218763563368056
 20
-19.706376817491318
 10
0.0862996419270833
 20
-19.423189968532984
 10
0.1806952582465278
 20
-19.111064317491319
 97
        0
 75
     0
 76
     1
 98
        1
 10
0.0
 20
0.0
  0
HATCH
  5
EF
100
AcDbEntity
  8
TEXT
 62
     7
100
AcDbHatch
 10
0.0
 20
0.0
 30
0.0
210
0.0
220
0.0
230
1.0
  2
SOLID
 70
     1
 71
     0
 91
        1
 92
        1
 93
        1
 72
     4
 94
        3
 73
     0
 74
     0
 95
       20
 96
       16
 40
0.0
 40
0.0
 40
0.0
 40
0.0
 40
1.0
 40
1.0
 40
1.0
 40
2.0
 40
2.0
 40
2.0
 40
3.0
 40
3.0
 40
3.0
 40
4.0
 40
4.0
 40
4.0
 40
5.0
 40
5.0
 40
5.0
 40
5.0
 10
-0.1806952582465278
 20
19.111408827039927
 10
-0.2685451931423611
 20
18.81995374891493
 10
-0.3498494466145833
 20
18.630128987630208
 10
-0.4435560438368055
 20
18.396551513671874
 10
-0.4435560438368055
 20
18.396551513671874
 10
0.4459676106770833
 20
18.396551513671874
 10
0.4459676106770833
 20
18.396551513671874
 10
0.4063490125868055
 20
18.479922824435761
 10
0.2709567599826389
 20
18.81995374891493
 10
0.1827623155381944
 20
19.111408827039927
 10
0.0614949544270833
 20
19.514484998914927
 10
0.0583943684895833
 20
19.435247802734374
 10
0.0012057834201389
 20
19.890344916449649
 10
-0.0218763563368056
 20
19.706721327039929
 10
-0.0862996419270833
 20
19.423534478081596
 10
-0.1806952582465278
 20
19.111408827039927
 97
        0
 75
     0
 76
     1
 98
        1
 10
0.0
 20
0.0
  0
ENDBLK
  5
F3
100
AcDbEntity
  8
TEXT
100
AcDbBlockEnd
  0
BLOCK
  5
FF
100
AcDbEntity
  8
TEXT
 62
     7
100
AcDbBlockBegin
  2
AI9-BLK26
 70
     0
 10
0.0
 20
0.0
 30
0.0
  3
AI9-BLK26
  1

  0
LINE
  5
101
100
AcDbEntity
  8
TEXT
 62
     7
100
AcDbLine
 10
-4.650621
 20
-0.000947
 30
0.0
 11
5.845724
 21
-0.024719
 31
0.0
  0
HATCH
  5
100
100
AcDbEntity
  8
TEXT
 62
     7
100
AcDbHatch
 10
0.0
 20
0.0
 30
0.0
210
0.0
220
0.0
230
1.0
  2
SOLID
 70
     1
 71
     0
 91
        1
 92
        1
 93
        1
 72
     4
 94
        3
 73
     0
 74
     0
 95
       20
 96
       16
 40
0.0
 40
0.0
 40
0.0
 40
0.0
 40
1.0
 40
1.0
 40
1.0
 40
2.0
 40
2.0
 40
2.0
 40
3.0
 40
3.0
 40
3.0
 40
4.0
 40
4.0
 40
4.0
 40
5.0
 40
5.0
 40
5.0
 40
5.0
 10
-5.0673048231336804
 20
-0.1818149142795139
 10
-4.7755052354600691
 20
-0.2698371039496528
 10
-4.5860249837239575
 20
-0.3509691026475694
 10
-4.3521030002170136
 20
-0.4448479546440972
 10
-4.3521030002170136
 20
-0.4448479546440972
 10
-4.3521030002170136
 20
0.4448479546440972
 10
-4.3521030002170136
 20
0.4448479546440972
 10
-4.4358188205295139
 20
0.4052293565538194
 10
-4.7755052354600691
 20
0.2698371039496528
 10
-5.0673048231336804
 20
0.1818149142795139
 10
-5.3794304741753471
 20
0.087591552734375
 10
-5.6622728135850693
 20
0.0229960123697917
 10
-5.8458964029947911
 20
0.0000861273871528
 10
-5.6622728135850693
 20
-0.0229960123697917
 10
-5.3794304741753471
 20
-0.0874192979600694
 10
-5.0673048231336804
 20
-0.1818149142795139
 97
        0
 75
     0
 76
     1
 98
        1
 10
0.0
 20
0.0
  0
ENDBLK
  5
102
100
AcDbEntity
  8
TEXT
100
AcDbBlockEnd
  0
BLOCK
  5
105
100
AcDbEntity
  8
TEXT
 62
     7
100
AcDbBlockBegin
  2
AI9-BLK27
 70
     0
 10
0.0
 20
0.0
 30
0.0
  3
AI9-BLK27
  1

  0
LINE
  5
107
100
AcDbEntity
  8
TEXT
 62
     7
100
AcDbLine
 10
11.555884
 20
0.000947
 30
0.0
 11
-12.75116
 21
-0.022824
 31
0.0
  0
HATCH
  5
106
100
AcDbEntity
  8
TEXT
 62
     7
100
AcDbHatch
 10
0.0
 20
0.0
 30
0.0
210
0.0
220
0.0
230
1.0
  2
SOLID
 70
     1
 71
     0
 91
        1
 92
        1
 93
        1
 72
     4
 94
        3
 73
     0
 74
     0
 95
       20
 96
       16
 40
0.0
 40
0.0
 40
0.0
 40
0.0
 40
1.0
 40
1.0
 40
1.0
 40
2.0
 40
2.0
 40
2.0
 40
3.0
 40
3.0
 40
3.0
 40
4.0
 40
4.0
 40
4.0
 40
5.0
 40
5.0
 40
5.0
 40
5.0
 10
11.972568088107638
 20
0.1818149142795139
 10
11.680768500434027
 20
0.2698371039496528
 10
11.491288248697916
 20
0.3509691026475694
 10
11.257366265190971
 20
0.4448479546440972
 10
11.257366265190971
 20
0.4448479546440972
 10
11.257366265190971
 20
-0.4448479546440972
 10
11.257366265190971
 20
-0.4448479546440972
 10
11.341082085503471
 20
-0.4052293565538194
 10
11.680768500434027
 20
-0.2698371039496528
 10
11.972568088107638
 20
-0.1818149142795139
 10
12.284693739149304
 20
-0.087591552734375
 10
12.567536078559026
 20
-0.0229960123697917
 10
12.751159667968748
 20
-0.0000861273871528
 10
12.567536078559026
 20
0.0229960123697917
 10
12.284693739149304
 20
0.0874192979600694
 10
11.972568088107638
 20
0.1818149142795139
 97
        0
 75
     0
 76
     1
 98
        1
 10
0.0
 20
0.0
  0
ENDBLK
  5
108
100
AcDbEntity
  8
TEXT
100
AcDbBlockEnd
  0
BLOCK
  5
10F
100
AcDbEntity
  8
TEXT
 62
     7
100
AcDbBlockBegin
  2
AI9-BLK28
 70
     0
 10
0.0
 20
0.0
 30
0.0
  3
AI9-BLK28
  1

  0
LINE
  5
111
100
AcDbEntity
  8
TEXT
 62
     7
100
AcDbLine
 10
-9.532924
 20
-0.001034
 30
0.0
 11
10.7282
 21
-0.039619
 31
0.0
  0
HATCH
  5
110
100
AcDbEntity
  8
TEXT
 62
     7
100
AcDbHatch
 10
0.0
 20
0.0
 30
0.0
210
0.0
220
0.0
230
1.0
  2
SOLID
 70
     1
 71
     0
 91
        1
 92
        1
 93
        1
 72
     4
 94
        3
 73
     0
 74
     0
 95
       20
 96
       16
 40
0.0
 40
0.0
 40
0.0
 40
0.0
 40
1.0
 40
1.0
 40
1.0
 40
2.0
 40
2.0
 40
2.0
 40
3.0
 40
3.0
 40
3.0
 40
4.0
 40
4.0
 40
4.0
 40
5.0
 40
5.0
 40
5.0
 40
5.0
 10
-9.9496080186631932
 20
-0.1817287868923611
 10
-9.6578084309895829
 20
-0.2699232313368055
 10
-9.4683281792534721
 20
-0.3510552300347222
 10
-9.2344061957465264
 20
-0.44493408203125
 10
-9.2344061957465264
 20
-0.44493408203125
 10
-9.2344061957465264
 20
0.44493408203125
 10
-9.2344061957465264
 20
0.44493408203125
 10
-9.3181220160590268
 20
0.4049709743923611
 10
-9.6578084309895829
 20
0.2697509765625
 10
-9.9496080186631932
 20
0.1817287868923611
 10
-10.26173366970486
 20
0.0873331705729167
 10
-10.544576009114582
 20
0.0229098849826389
 10
-10.728199598524304
 20
-0.0001722547743056
 10
-10.544576009114582
 20
-0.0230821397569444
 10
-10.26173366970486
 20
-0.0876776801215278
 10
-9.9496080186631932
 20
-0.1817287868923611
 97
        0
 75
     0
 76
     1
 98
        1
 10
0.0
 20
0.0
  0
ENDBLK
  5
112
100
AcDbEntity
  8
TEXT
100
AcDbBlockEnd
  0
BLOCK
  5
115
100
AcDbEntity
  8
TEXT
 62
     7
100
AcDbBlockBegin
  2
AI9-BLK29
 70
     0
 10
0.0
 20
0.0
 30
0.0
  3
AI9-BLK29
  1

  0
LINE
  5
117
100
AcDbEntity
  8
TEXT
 62
     7
100
AcDbLine
 10
3.002315
 20
0.001034
 30
0.0
 11
-4.19759
 21
0.001034
 31
0.0
  0
HATCH
  5
116
100
AcDbEntity
  8
TEXT
 62
     7
100
AcDbHatch
 10
0.0
 20
0.0
 30
0.0
210
0.0
220
0.0
230
1.0
  2
SOLID
 70
     1
 71
     0
 91
        1
 92
        1
 93
        1
 72
     4
 94
        3
 73
     0
 74
     0
 95
       20
 96
       16
 40
0.0
 40
0.0
 40
0.0
 40
0.0
 40
1.0
 40
1.0
 40
1.0
 40
2.0
 40
2.0
 40
2.0
 40
3.0
 40
3.0
 40
3.0
 40
4.0
 40
4.0
 40
4.0
 40
5.0
 40
5.0
 40
5.0
 40
5.0
 10
3.4188266330295134
 20
0.1817287868923611
 10
3.1273715549045136
 20
0.2699232313368055
 10
2.9377190483940971
 20
0.3510552300347222
 10
2.7037970648871523
 20
0.44493408203125
 10
2.7037970648871523
 20
0.44493408203125
 10
2.7037970648871523
 20
-0.44493408203125
 10
2.7037970648871523
 20
-0.44493408203125
 10
2.7875128851996527
 20
-0.4049709743923611
 10
3.1273715549045136
 20
-0.2697509765625
 10
3.4188266330295134
 20
-0.1817287868923611
 10
3.7309522840711802
 20
-0.0873331705729167
 10
4.0141391330295138
 20
-0.0229098849826389
 10
4.1975904676649298
 20
0.0001722547743056
 10
4.0141391330295138
 20
0.0230821397569444
 10
3.7309522840711802
 20
0.0876776801215278
 10
3.4188266330295134
 20
0.1817287868923611
 97
        0
 75
     0
 76
     1
 98
        1
 10
0.0
 20
0.0
  0
ENDBLK
  5
118
100
AcDbEntity
  8
TEXT
100
AcDbBlockEnd
  0
BLOCK
  5
123
100
AcDbEntity
  8
TEXT
 62
     7
100
AcDbBlockBegin
  2
AI9-BLK30
 70
     0
 10
0.0
 20
0.0
 30
0.0
  3
AI9-BLK30
  1

  0
LINE
  5
125
100
AcDbEntity
  8
TEXT
 62
     7
100
AcDbLine
 10
-2.557294
 20
-0.000861
 30
0.0
 11
3.75257
 21
-0.000861
 31
0.0
  0
HATCH
  5
124
100
AcDbEntity
  8
TEXT
 62
     7
100
AcDbHatch
 10
0.0
 20
0.0
 30
0.0
210
0.0
220
0.0
230
1.0
  2
SOLID
 70
     1
 71
     0
 91
        1
 92
        1
 93
        1
 72
     4
 94
        3
 73
     0
 74
     0
 95
       20
 96
       16
 40
0.0
 40
0.0
 40
0.0
 40
0.0
 40
1.0
 40
1.0
 40
1.0
 40
2.0
 40
2.0
 40
2.0
 40
3.0
 40
3.0
 40
3.0
 40
4.0
 40
4.0
 40
4.0
 40
5.0
 40
5.0
 40
5.0
 40
5.0
 10
-2.9739786783854165
 20
-0.1817287868923611
 10
-2.6821790907118053
 20
-0.2699232313368055
 10
-2.4926988389756941
 20
-0.3508829752604166
 10
-2.2587768554687497
 20
-0.44493408203125
 10
-2.2587768554687497
 20
-0.44493408203125
 10
-2.2587768554687497
 20
0.44493408203125
 10
-2.2587768554687497
 20
0.44493408203125
 10
-2.3424926757812496
 20
0.4053154839409722
 10
-2.6821790907118053
 20
0.2699232313368055
 10
-2.9739786783854165
 20
0.1820732964409722
 10
-3.2861043294270829
 20
0.0876776801215278
 10
-3.5689466688368054
 20
0.0229098849826389
 10
-3.7525702582465272
 20
0.0001722547743056
 10
-3.5689466688368054
 20
-0.0229098849826389
 10
-3.2861043294270829
 20
-0.0873331705729167
 10
-2.9739786783854165
 20
-0.1817287868923611
 97
        0
 75
     0
 76
     1
 98
        1
 10
0.0
 20
0.0
  0
ENDBLK
  5
126
100
AcDbEntity
  8
TEXT
100
AcDbBlockEnd
  0
BLOCK
  5
12D
100
AcDbEntity
  8
TEXT
 62
     7
100
AcDbBlockBegin
  2
AI9-BLK31
 70
     0
 10
0.0
 20
0.0
 30
0.0
  3
AI9-BLK31
  1

  0
LINE
  5
131
100
AcDbEntity
  8
TEXT
 62
     7
100
AcDbLine
 10
19.653064
 20
0.0
 30
0.0
 11
27.197479
 21
0.0
 31
0.0
  0
LINE
  5
130
100
AcDbEntity
  8
TEXT
 62
     7
100
AcDbLine
 10
-27.197479
 20
0.0
 30
0.0
 11
2.190564
 21
0.0
 31
0.0
  0
HATCH
  5
12F
100
AcDbEntity
  8
TEXT
 62
     7
100
AcDbHatch
 10
0.0
 20
0.0
 30
0.0
210
0.0
220
0.0
230
1.0
  2
SOLID
 70
     1
 71
     0
 91
        1
 92
        1
 93
        1
 72
     4
 94
        3
 73
     0
 74
     0
 95
       20
 96
       16
 40
0.0
 40
0.0
 40
0.0
 40
0.0
 40
1.0
 40
1.0
 40
1.0
 40
2.0
 40
2.0
 40
2.0
 40
3.0
 40
3.0
 40
3.0
 40
4.0
 40
4.0
 40
4.0
 40
5.0
 40
5.0
 40
5.0
 40
5.0
 10
27.614162868923607
 20
0.1808675130208333
 10
27.322363281249999
 20
0.2690619574652778
 10
27.132883029513888
 20
0.3500217013888889
 10
26.898961046006942
 20
0.4440728081597222
 10
26.898961046006942
 20
0.4440728081597222
 10
26.898961046006942
 20
-0.4457953559027778
 10
26.898961046006942
 20
-0.4457953559027778
 10
26.982676866319441
 20
-0.4061767578125
 10
27.322363281249999
 20
-0.2707845052083333
 10
27.614162868923607
 20
-0.1829345703125
 10
27.926288519965276
 20
-0.0885389539930555
 10
28.209130859374998
 20
-0.0237711588541667
 10
28.392754448784718
 20
-0.0010335286458333
 10
28.209130859374998
 20
0.0220486111111111
 10
27.926288519965276
 20
0.0864718967013889
 10
27.614162868923607
 20
0.1808675130208333
 97
        0
 75
     0
 76
     1
 98
        1
 10
0.0
 20
0.0
  0
HATCH
  5
12E
100
AcDbEntity
  8
TEXT
 62
     7
100
AcDbHatch
 10
0.0
 20
0.0
 30
0.0
210
0.0
220
0.0
230
1.0
  2
SOLID
 70
     1
 71
     0
 91
        1
 92
        1
 93
        1
 72
     4
 94
        3
 73
     0
 74
     0
 95
       20
 96
       16
 40
0.0
 40
0.0
 40
0.0
 40
0.0
 40
1.0
 40
1.0
 40
1.0
 40
2.0
 40
2.0
 40
2.0
 40
3.0
 40
3.0
 40
3.0
 40
4.0
 40
4.0
 40
4.0
 40
5.0
 40
5.0
 40
5.0
 40
5.0
 10
-27.614162868923607
 20
-0.1808675130208333
 10
-27.322363281249999
 20
-0.2690619574652778
 10
-27.132883029513888
 20
-0.3500217013888889
 10
-26.898961046006942
 20
-0.4440728081597222
 10
-26.898961046006942
 20
-0.4440728081597222
 10
-26.898961046006942
 20
0.4457953559027778
 10
-26.898961046006942
 20
0.4457953559027778
 10
-26.982676866319441
 20
0.4061767578125
 10
-27.322363281249999
 20
0.2707845052083333
 10
-27.614162868923607
 20
0.1829345703125
 10
-27.926288519965276
 20
0.0885389539930555
 10
-28.209130859374998
 20
0.0237711588541667
 10
-28.392754448784718
 20
0.0010335286458333
 10
-28.209130859374998
 20
-0.0220486111111111
 10
-27.926288519965276
 20
-0.0864718967013889
 10
-27.614162868923607
 20
-0.1808675130208333
 97
        0
 75
     0
 76
     1
 98
        1
 10
0.0
 20
0.0
  0
ENDBLK
  5
132
100
AcDbEntity
  8
TEXT
100
AcDbBlockEnd
  0
BLOCK
  5
139
100
AcDbEntity
  8
TEXT
 62
     7
100
AcDbBlockBegin
  2
AI9-BLK32
 70
     0
 10
0.0
 20
0.0
 30
0.0
  3
AI9-BLK32
  1

  0
LINE
  5
13B
100
AcDbEntity
  8
TEXT
 62
     7
100
AcDbLine
 10
-11.236007
 20
0.025494
 30
0.0
 11
10.342177
 21
0.025321
 31
0.0
  0
HATCH
  5
13A
100
AcDbEntity
  8
TEXT
 62
     7
100
AcDbHatch
 10
0.0
 20
0.0
 30
0.0
210
0.0
220
0.0
230
1.0
  2
SOLID
 70
     1
 71
     0
 91
        1
 92
        1
 93
        1
 72
     4
 94
        3
 73
     0
 74
     0
 95
       20
 96
       16
 40
0.0
 40
0.0
 40
0.0
 40
0.0
 40
1.0
 40
1.0
 40
1.0
 40
2.0
 40
2.0
 40
2.0
 40
3.0
 40
3.0
 40
3.0
 40
4.0
 40
4.0
 40
4.0
 40
5.0
 40
5.0
 40
5.0
 40
5.0
 10
10.457415093315971
 20
0.1817287868923611
 10
10.165615505642361
 20
0.2699232313368055
 10
9.9761352539062482
 20
0.3508829752604166
 10
9.7422132703993043
 20
0.44493408203125
 10
9.7422132703993043
 20
0.44493408203125
 10
9.7422132703993043
 20
-0.44493408203125
 10
9.7422132703993043
 20
-0.44493408203125
 10
9.8259290907118046
 20
-0.4053154839409722
 10
10.165615505642361
 20
-0.2699232313368055
 10
10.457415093315971
 20
-0.1820732964409722
 10
10.769540744357638
 20
-0.0876776801215278
 10
11.05238308376736
 20
-0.0229098849826389
 10
11.236006673177082
 20
-0.0001722547743056
 10
11.05238308376736
 20
0.0229098849826389
 10
10.769540744357638
 20
0.0873331705729167
 10
10.457415093315971
 20
0.1817287868923611
 97
        0
 75
     0
 76
     1
 98
        1
 10
0.0
 20
0.0
  0
ENDBLK
  5
13C
100
AcDbEntity
  8
TEXT
100
AcDbBlockEnd
  0
BLOCK
  5
13F
100
AcDbEntity
  8
TEXT
 62
     7
100
AcDbBlockBegin
  2
AI9-BLK33
 70
     0
 10
0.0
 20
0.0
 30
0.0
  3
AI9-BLK33
  1

  0
LINE
  5
141
100
AcDbEntity
  8
TEXT
 62
     7
100
AcDbLine
 10
-1.086411
 20
-0.000861
 30
0.0
 11
2.281687
 21
-0.000861
 31
0.0
  0
HATCH
  5
140
100
AcDbEntity
  8
TEXT
 62
     7
100
AcDbHatch
 10
0.0
 20
0.0
 30
0.0
210
0.0
220
0.0
230
1.0
  2
SOLID
 70
     1
 71
     0
 91
        1
 92
        1
 93
        1
 72
     4
 94
        3
 73
     0
 74
     0
 95
       20
 96
       16
 40
0.0
 40
0.0
 40
0.0
 40
0.0
 40
1.0
 40
1.0
 40
1.0
 40
2.0
 40
2.0
 40
2.0
 40
3.0
 40
3.0
 40
3.0
 40
4.0
 40
4.0
 40
4.0
 40
5.0
 40
5.0
 40
5.0
 40
5.0
 10
-1.5029229058159721
 20
-0.1817287868923611
 10
-1.2112955729166666
 20
-0.2699232313368055
 10
-1.0218153211805554
 20
-0.3508829752604166
 10
-0.787893337673611
 20
-0.44493408203125
 10
-0.787893337673611
 20
-0.44493408203125
 10
-0.787893337673611
 20
0.44493408203125
 10
-0.787893337673611
 20
0.44493408203125
 10
-0.8716091579861111
 20
0.4053154839409722
 10
-1.2112955729166666
 20
0.2699232313368055
 10
-1.5029229058159721
 20
0.1820732964409722
 10
-1.8150485568576387
 20
0.0876776801215278
 10
-2.0980631510416665
 20
0.0229098849826389
 10
-2.2816867404513888
 20
0.0001722547743056
 10
-2.0980631510416665
 20
-0.0229098849826389
 10
-1.8150485568576387
 20
-0.0873331705729167
 10
-1.5029229058159721
 20
-0.1817287868923611
 97
        0
 75
     0
 76
     1
 98
        1
 10
0.0
 20
0.0
  0
ENDBLK
  5
142
100
AcDbEntity
  8
TEXT
100
AcDbBlockEnd
  0
BLOCK
  5
14E
100
AcDbEntity
  8
TEXT
 62
     7
100
AcDbBlockBegin
  2
AI9-BLK34
 70
     0
 10
0.0
 20
0.0
 30
0.0
  3
AI9-BLK34
  1

  0
LINE
  5
150
100
AcDbEntity
  8
TEXT
 62
     7
100
AcDbLine
 10
2.411911
 20
0.001034
 30
0.0
 11
-3.607015
 21
0.023082
 31
0.0
  0
HATCH
  5
14F
100
AcDbEntity
  8
TEXT
 62
     7
100
AcDbHatch
 10
0.0
 20
0.0
 30
0.0
210
0.0
220
0.0
230
1.0
  2
SOLID
 70
     1
 71
     0
 91
        1
 92
        1
 93
        1
 72
     4
 94
        3
 73
     0
 74
     0
 95
       20
 96
       16
 40
0.0
 40
0.0
 40
0.0
 40
0.0
 40
1.0
 40
1.0
 40
1.0
 40
2.0
 40
2.0
 40
2.0
 40
3.0
 40
3.0
 40
3.0
 40
4.0
 40
4.0
 40
4.0
 40
5.0
 40
5.0
 40
5.0
 40
5.0
 10
2.8284233940972219
 20
0.1819010416666667
 10
2.5369683159722221
 20
0.2697509765625
 10
2.3474880642361109
 20
0.3510552300347222
 10
2.1132215711805555
 20
0.4447618272569444
 10
2.1132215711805555
 20
0.4447618272569444
 10
2.1132215711805555
 20
-0.4447618272569444
 10
2.1132215711805555
 20
-0.4447618272569444
 10
2.1972819010416664
 20
-0.4051432291666666
 10
2.5369683159722221
 20
-0.2697509765625
 10
2.8284233940972219
 20
-0.1815565321180555
 10
3.1405490451388887
 20
-0.0875054253472222
 10
3.4237358940972218
 20
-0.0230821397569444
 10
3.607014973958333
 20
0.0
 10
3.4237358940972218
 20
0.0230821397569444
 10
3.1405490451388887
 20
0.0875054253472222
 10
2.8284233940972219
 20
0.1819010416666667
 97
        0
 75
     0
 76
     1
 98
        1
 10
0.0
 20
0.0
  0
ENDBLK
  5
151
100
AcDbEntity
  8
TEXT
100
AcDbBlockEnd
  0
BLOCK
  5
154
100
AcDbEntity
  8
TEXT
 62
     7
100
AcDbBlockBegin
  2
AI9-BLK35
 70
     0
 10
0.0
 20
0.0
 30
0.0
  3
AI9-BLK35
  1

  0
LINE
  5
156
100
AcDbEntity
  8
TEXT
 62
     7
100
AcDbLine
 10
-2.076015
 20
-0.001034
 30
0.0
 11
3.270774
 21
0.021704
 31
0.0
  0
HATCH
  5
155
100
AcDbEntity
  8
TEXT
 62
     7
100
AcDbHatch
 10
0.0
 20
0.0
 30
0.0
210
0.0
220
0.0
230
1.0
  2
SOLID
 70
     1
 71
     0
 91
        1
 92
        1
 93
        1
 72
     4
 94
        3
 73
     0
 74
     0
 95
       20
 96
       16
 40
0.0
 40
0.0
 40
0.0
 40
0.0
 40
1.0
 40
1.0
 40
1.0
 40
2.0
 40
2.0
 40
2.0
 40
3.0
 40
3.0
 40
3.0
 40
4.0
 40
4.0
 40
4.0
 40
5.0
 40
5.0
 40
5.0
 40
5.0
 10
-2.4925265842013888
 20
-0.1819010416666667
 10
-2.2010715060763886
 20
-0.2697509765625
 10
-2.0112467447916664
 20
-0.3510552300347222
 10
-1.7773247612847221
 20
-0.4447618272569444
 10
-1.7773247612847221
 20
-0.4447618272569444
 10
-1.7773247612847221
 20
0.4447618272569444
 10
-1.7773247612847221
 20
0.4447618272569444
 10
-1.861040581597222
 20
0.4051432291666666
 10
-2.2010715060763886
 20
0.2697509765625
 10
-2.4925265842013888
 20
0.1815565321180555
 10
-2.8046522352430552
 20
0.0875054253472222
 10
-3.0878390842013888
 20
0.0230821397569444
 10
-3.2711181640624996
 20
0.0
 10
-3.0878390842013888
 20
-0.0230821397569444
 10
-2.8046522352430552
 20
-0.0875054253472222
 10
-2.4925265842013888
 20
-0.1819010416666667
 97
        0
 75
     0
 76
     1
 98
        1
 10
0.0
 20
0.0
  0
ENDBLK
  5
157
100
AcDbEntity
  8
TEXT
100
AcDbBlockEnd
  0
BLOCK
  5
15C
100
AcDbEntity
  8
LINE_ART
 62
     7
100
AcDbBlockBegin
  2
AI9-BLK36
 70
     0
 10
0.0
 20
0.0
 30
0.0
  3
AI9-BLK36
  1

  0
SPLINE
  5
15D
100
AcDbEntity
  8
LINE_ART
 62
     7
100
AcDbSpline
210
0.0
220
0.0
230
1.0
 70
     8
 71
     3
 72
     8
 73
     4
 74
     0
 42
0.00000001
 43
0.00000001
 40
0.0
 40
0.0
 40
0.0
 40
0.0
 40
1.0
 40
1.0
 40
1.0
 40
1.0
 10
7.4998006184895827
 20
25.059710693359374
 30
0.0
 10
-2.2680786132812498
 20
10.14485880533854
 30
0.0
 10
-7.4743069118923602
 20
-7.2949035644531239
 30
0.0
 10
-7.480852593315972
 20
-25.123272705078122
 30
0.0
  0
ENDBLK
  5
15E
100
AcDbEntity
  8
LINE_ART
100
AcDbBlockEnd
  0
BLOCK
  5
161
100
AcDbEntity
  8
LINE_ART
 62
     7
100
AcDbBlockBegin
  2
AI9-BLK37
 70
     0
 10
0.0
 20
0.0
 30
0.0
  3
AI9-BLK37
  1

  0
SPLINE
  5
162
100
AcDbEntity
  8
LINE_ART
 62
     7
100
AcDbSpline
210
0.0
220
0.0
230
1.0
 70
     8
 71
     3
 72
    11
 73
     7
 74
     0
 42
0.00000001
 43
0.00000001
 40
0.0
 40
0.0
 40
0.0
 40
0.0
 40
1.0
 40
1.0
 40
1.0
 40
2.0
 40
2.0
 40
2.0
 40
2.0
 10
4.096735297309027
 20
22.280207655164929
 30
0.0
 10
-1.2758911132812498
 20
12.146803792317707
 30
0.0
 10
-4.08502197265625
 20
0.8517137315538194
 30
0.0
 10
-4.08502197265625
 20
-10.617870415581596
 30
0.0
 10
-4.08502197265625
 20
-14.538733588324652
 30
0.0
 10
-3.7567043728298608
 20
-18.452362060546875
 30
0.0
 10
-3.103514268663194
 20
-22.318448215060762
 30
0.0
  0
ENDBLK
  5
163
100
AcDbEntity
  8
LINE_ART
100
AcDbBlockEnd
  0
BLOCK
  5
16E
100
AcDbEntity
  8
LINE_ART
 62
     7
100
AcDbBlockBegin
  2
AI9-BLK38
 70
     0
 10
0.0
 20
0.0
 30
0.0
  3
AI9-BLK38
  1

  0
SPLINE
  5
16F
100
AcDbEntity
  8
LINE_ART
 62
     7
100
AcDbSpline
210
0.0
220
0.0
230
1.0
 70
     8
 71
     3
 72
    11
 73
     7
 74
     0
 42
0.00000001
 43
0.00000001
 40
0.0
 40
0.0
 40
0.0
 40
0.0
 40
1.0
 40
1.0
 40
1.0
 40
2.0
 40
2.0
 40
2.0
 40
2.0
 10
25.68413425021701
 20
-1.1591023763020831
 30
0.0
 10
17.209716118706595
 20
0.3822333441840278
 30
0.0
 10
8.6136861165364582
 20
1.1575520833333333
 30
0.0
 10
0.0000861273871528
 20
1.1575520833333333
 30
0.0
 10
-8.6135138617621525
 20
1.1575520833333333
 30
0.0
 10
-17.209543863932289
 20
0.3822333441840278
 30
0.0
 10
-25.68413425021701
 20
-1.1591023763020831
 30
0.0
  0
ENDBLK
  5
170
100
AcDbEntity
  8
LINE_ART
100
AcDbBlockEnd
  0
BLOCK
  5
177
100
AcDbEntity
  8
LINE_ART
 62
     7
100
AcDbBlockBegin
  2
AI9-BLK39
 70
     0
 10
0.0
 20
0.0
 30
0.0
  3
AI9-BLK39
  1

  0
SPLINE
  5
178
100
AcDbEntity
  8
LINE_ART
 62
     7
100
AcDbSpline
210
0.0
220
0.0
230
1.0
 70
     8
 71
     3
 72
    11
 73
     7
 74
     0
 42
0.00000001
 43
0.00000001
 40
0.0
 40
0.0
 40
0.0
 40
0.0
 40
1.0
 40
1.0
 40
1.0
 40
2.0
 40
2.0
 40
2.0
 40
2.0
 10
25.43789605034722
 20
-1.1443745930989582
 30
0.0
 10
17.044093153211804
 20
0.3773240831163194
 30
0.0
 10
8.5305731879340279
 20
1.1428243001302083
 30
0.0
 10
0.0
 20
1.1428243001302083
 30
0.0
 10
-8.5305731879340279
 20
1.1428243001302083
 30
0.0
 10
-17.044093153211804
 20
0.3773240831163194
 30
0.0
 10
-25.43789605034722
 20
-1.1443745930989582
 30
0.0
  0
ENDBLK
  5
179
100
AcDbEntity
  8
LINE_ART
100
AcDbBlockEnd
  0
BLOCK
  5
17C
100
AcDbEntity
  8
LINE_ART
 62
     7
100
AcDbBlockBegin
  2
AI9-BLK40
 70
     0
 10
0.0
 20
0.0
 30
0.0
  3
AI9-BLK40
  1

  0
SPLINE
  5
17D
100
AcDbEntity
  8
LINE_ART
 62
     7
100
AcDbSpline
210
0.0
220
0.0
230
1.0
 70
     8
 71
     3
 72
    11
 73
     7
 74
     0
 42
0.00000001
 43
0.00000001
 40
0.0
 40
0.0
 40
0.0
 40
0.0
 40
1.0
 40
1.0
 40
1.0
 40
2.0
 40
2.0
 40
2.0
 40
2.0
 10
17.169753011067705
 20
-0.5482869466145833
 30
0.0
 10
11.475699191623264
 20
0.1815565321180555
 30
0.0
 10
5.7408209906684027
 20
0.547597927517361
 30
0.0
 10
0.0000861273871528
 20
0.547597927517361
 30
0.0
 10
-5.740648735894097
 20
0.547597927517361
 30
0.0
 10
-11.475526936848958
 20
0.1815565321180555
 30
0.0
 10
-17.169753011067705
 20
-0.5482869466145833
 30
0.0
  0
ENDBLK
  5
17E
100
AcDbEntity
  8
LINE_ART
100
AcDbBlockEnd
  0
BLOCK
  5
1A3
100
AcDbEntity
  8
LINE_ART
 62
     7
100
AcDbBlockBegin
  2
AI9-BLK41
 70
     0
 10
0.0
 20
0.0
 30
0.0
  3
AI9-BLK41
  1

  0
SPLINE
  5
1A4
100
AcDbEntity
  8
LINE_ART
 62
     7
100
AcDbSpline
210
0.0
220
0.0
230
1.0
 70
     8
 71
     3
 72
    11
 73
     7
 74
     0
 42
0.00000001
 43
0.00000001
 40
0.0
 40
0.0
 40
0.0
 40
0.0
 40
1.0
 40
1.0
 40
1.0
 40
2.0
 40
2.0
 40
2.0
 40
2.0
 10
1.1301635742187499
 20
-1.4788072374131944
 30
0.0
 10
1.1301635742187499
 20
-1.4710557725694444
 30
0.0
 10
1.1301635742187499
 20
-1.4633043077256944
 30
0.0
 10
1.1301635742187499
 20
-1.4557250976562499
 30
0.0
 10
1.1301635742187499
 20
-0.0747585720486111
 30
0.0
 10
0.1422824435763889
 20
1.10845947265625
 30
0.0
 10
-1.2164632161458333
 20
1.3547837999131944
 30
0.0
  0
ENDBLK
  5
1A5
100
AcDbEntity
  8
LINE_ART
100
AcDbBlockEnd
  0
BLOCK
  5
1A8
100
AcDbEntity
  8
LINE_ART
 62
     7
100
AcDbBlockBegin
  2
AI9-BLK42
 70
     0
 10
0.0
 20
0.0
 30
0.0
  3
AI9-BLK42
  1

  0
SPLINE
  5
1A9
100
AcDbEntity
  8
LINE_ART
 62
     7
100
AcDbSpline
210
0.0
220
0.0
230
1.0
 70
     8
 71
     3
 72
     8
 73
     4
 74
     0
 42
0.00000001
 43
0.00000001
 40
0.0
 40
0.0
 40
0.0
 40
0.0
 40
1.0
 40
1.0
 40
1.0
 40
1.0
 10
1.1305080837673611
 20
-1.4443562825520833
 30
0.0
 10
1.1201727973090276
 20
-0.0721747504340278
 30
0.0
 10
0.1355645073784722
 20
1.0986409505208332
 30
0.0
 10
-1.214568413628472
 20
1.3442762586805554
 30
0.0
  0
ENDBLK
  5
1AA
100
AcDbEntity
  8
LINE_ART
100
AcDbBlockEnd
  0
BLOCK
  5
1AD
100
AcDbEntity
  8
LINE_ART
 62
     7
100
AcDbBlockBegin
  2
AI9-BLK43
 70
     0
 10
0.0
 20
0.0
 30
0.0
  3
AI9-BLK43
  1

  0
SPLINE
  5
1AE
100
AcDbEntity
  8
LINE_ART
 62
     7
100
AcDbSpline
210
0.0
220
0.0
230
1.0
 70
     8
 71
     3
 72
    11
 73
     7
 74
     0
 42
0.00000001
 43
0.00000001
 40
0.0
 40
0.0
 40
0.0
 40
0.0
 40
1.0
 40
1.0
 40
1.0
 40
2.0
 40
2.0
 40
2.0
 40
2.0
 10
1.2154296874999999
 20
1.3547837999131944
 30
0.0
 10
-0.1433159722222222
 20
1.10845947265625
 30
0.0
 10
-1.1311971028645833
 20
-0.0747585720486111
 30
0.0
 10
-1.1311971028645833
 20
-1.4557250976562499
 30
0.0
 10
-1.1311971028645833
 20
-1.4633043077256944
 30
0.0
 10
-1.1311971028645833
 20
-1.4710557725694444
 30
0.0
 10
-1.1311971028645833
 20
-1.4788072374131944
 30
0.0
  0
ENDBLK
  5
1AF
100
AcDbEntity
  8
LINE_ART
100
AcDbBlockEnd
  0
BLOCK
  5
1B2
100
AcDbEntity
  8
LINE_ART
 62
     7
100
AcDbBlockBegin
  2
AI9-BLK44
 70
     0
 10
0.0
 20
0.0
 30
0.0
  3
AI9-BLK44
  1

  0
SPLINE
  5
1B3
100
AcDbEntity
  8
LINE_ART
 62
     7
100
AcDbSpline
210
0.0
220
0.0
230
1.0
 70
     8
 71
     3
 72
     8
 73
     4
 74
     0
 42
0.00000001
 43
0.00000001
 40
0.0
 40
0.0
 40
0.0
 40
0.0
 40
1.0
 40
1.0
 40
1.0
 40
1.0
 10
1.2144822862413194
 20
1.3442762586805554
 30
0.0
 10
-0.1354783799913194
 20
1.0986409505208332
 30
0.0
 10
-1.120086669921875
 20
-0.0721747504340278
 30
0.0
 10
-1.1304219563802083
 20
-1.4443562825520833
 30
0.0
  0
ENDBLK
  5
1B4
100
AcDbEntity
  8
LINE_ART
100
AcDbBlockEnd
  0
BLOCK
  5
1B7
100
AcDbEntity
  8
LINE_ART
 62
     7
100
AcDbBlockBegin
  2
AI9-BLK45
 70
     0
 10
0.0
 20
0.0
 30
0.0
  3
AI9-BLK45
  1

  0
SPLINE
  5
1B8
100
AcDbEntity
  8
LINE_ART
 62
     7
100
AcDbSpline
210
0.0
220
0.0
230
1.0
 70
     8
 71
     3
 72
     8
 73
     4
 74
     0
 42
0.00000001
 43
0.00000001
 40
0.0
 40
0.0
 40
0.0
 40
0.0
 40
1.0
 40
1.0
 40
1.0
 40
1.0
 10
1.7453715006510415
 20
-2.0490566677517359
 30
0.0
 10
1.7100592719184027
 20
-0.0123162163628472
 30
0.0
 10
0.1856045193142361
 20
1.6899054633246526
 30
0.0
 10
-1.8349439832899304
 20
1.9489766438802081
 30
0.0
  0
ENDBLK
  5
1B9
100
AcDbEntity
  8
LINE_ART
100
AcDbBlockEnd
  0
BLOCK
  5
1BC
100
AcDbEntity
  8
LINE_ART
 62
     7
100
AcDbBlockBegin
  2
AI9-BLK46
 70
     0
 10
0.0
 20
0.0
 30
0.0
  3
AI9-BLK46
  1

  0
SPLINE
  5
1BD
100
AcDbEntity
  8
LINE_ART
 62
     7
100
AcDbSpline
210
0.0
220
0.0
230
1.0
 70
     8
 71
     3
 72
     8
 73
     4
 74
     0
 42
0.00000001
 43
0.00000001
 40
0.0
 40
0.0
 40
0.0
 40
0.0
 40
1.0
 40
1.0
 40
1.0
 40
1.0
 10
1.8348578559027775
 20
1.9489766438802081
 30
0.0
 10
-0.1855183919270833
 20
1.6899054633246526
 30
0.0
 10
-1.7099731445312498
 20
-0.0123162163628472
 30
0.0
 10
-1.7452853732638887
 20
-2.0490566677517359
 30
0.0
  0
ENDBLK
  5
1BE
100
AcDbEntity
  8
LINE_ART
100
AcDbBlockEnd
  0
BLOCK
  5
1C5
100
AcDbEntity
  8
LINE_ART
 62
     7
100
AcDbBlockBegin
  2
AI9-BLK47
 70
     0
 10
0.0
 20
0.0
 30
0.0
  3
AI9-BLK47
  1

  0
SPLINE
  5
1C6
100
AcDbEntity
  8
LINE_ART
 62
     7
100
AcDbSpline
210
0.0
220
0.0
230
1.0
 70
     8
 71
     3
 72
    14
 73
    10
 74
     0
 42
0.00000001
 43
0.00000001
 40
0.0
 40
0.0
 40
0.0
 40
0.0
 40
1.0
 40
1.0
 40
1.0
 40
2.0
 40
2.0
 40
2.0
 40
3.0
 40
3.0
 40
3.0
 40
3.0
 10
1.5837103949652775
 20
1.4800991482204859
 30
0.0
 10
1.5837103949652775
 20
1.4800991482204859
 30
0.0
 10
1.5837103949652775
 20
1.4800991482204859
 30
0.0
 10
1.5837103949652775
 20
1.4800991482204859
 30
0.0
 10
-0.1083482530381944
 20
1.4800991482204859
 30
0.0
 10
-1.4801852756076388
 20
0.1086066351996528
 30
0.0
 10
-1.4801852756076388
 20
-1.5836242675781249
 30
0.0
 10
-1.4801852756076388
 20
-1.5836242675781249
 30
0.0
 10
-1.4801852756076388
 20
-1.5836242675781249
 30
0.0
 10
-1.4801852756076388
 20
-1.5836242675781249
 30
0.0
  0
ENDBLK
  5
1C7
100
AcDbEntity
  8
LINE_ART
100
AcDbBlockEnd
  0
BLOCK
  5
1CA
100
AcDbEntity
  8
LINE_ART
 62
     7
100
AcDbBlockBegin
  2
AI9-BLK48
 70
     0
 10
0.0
 20
0.0
 30
0.0
  3
AI9-BLK48
  1

  0
SPLINE
  5
1CB
100
AcDbEntity
  8
LINE_ART
 62
     7
100
AcDbSpline
210
0.0
220
0.0
230
1.0
 70
     8
 71
     3
 72
    14
 73
    10
 74
     0
 42
0.00000001
 43
0.00000001
 40
0.0
 40
0.0
 40
0.0
 40
0.0
 40
1.0
 40
1.0
 40
1.0
 40
2.0
 40
2.0
 40
2.0
 40
3.0
 40
3.0
 40
3.0
 40
3.0
 10
-0.6392374674479167
 20
0.7108954535590277
 30
0.0
 10
-0.6392374674479167
 20
0.7108954535590277
 30
0.0
 10
-0.6392374674479167
 20
0.7108954535590277
 30
0.0
 10
-0.6392374674479167
 20
0.7108954535590277
 30
0.0
 10
-0.6392374674479167
 20
-0.0346232096354167
 30
0.0
 10
-0.0347954644097222
 20
-0.6392374674479167
 30
0.0
 10
0.7108954535590277
 20
-0.6392374674479167
 30
0.0
 10
0.7108954535590277
 20
-0.6392374674479167
 30
0.0
 10
0.7108954535590277
 20
-0.6392374674479167
 30
0.0
 10
0.7108954535590277
 20
-0.6392374674479167
 30
0.0
  0
ENDBLK
  5
1CC
100
AcDbEntity
  8
LINE_ART
100
AcDbBlockEnd
  0
BLOCK
  5
1CF
100
AcDbEntity
  8
LINE_ART
 62
     7
100
AcDbBlockBegin
  2
AI9-BLK49
 70
     0
 10
0.0
 20
0.0
 30
0.0
  3
AI9-BLK49
  1

  0
SPLINE
  5
1D0
100
AcDbEntity
  8
LINE_ART
 62
     7
100
AcDbSpline
210
0.0
220
0.0
230
1.0
 70
     8
 71
     3
 72
    14
 73
    10
 74
     0
 42
0.00000001
 43
0.00000001
 40
0.0
 40
0.0
 40
0.0
 40
0.0
 40
1.0
 40
1.0
 40
1.0
 40
2.0
 40
2.0
 40
2.0
 40
3.0
 40
3.0
 40
3.0
 40
3.0
 10
-0.7109815809461805
 20
-0.6392374674479167
 30
0.0
 10
-0.7109815809461805
 20
-0.6392374674479167
 30
0.0
 10
-0.7109815809461805
 20
-0.6392374674479167
 30
0.0
 10
-0.7109815809461805
 20
-0.6392374674479167
 30
0.0
 10
0.0347093370225694
 20
-0.6392374674479167
 30
0.0
 10
0.6393235948350694
 20
-0.0346232096354167
 30
0.0
 10
0.6393235948350694
 20
0.7108954535590277
 30
0.0
 10
0.6393235948350694
 20
0.7108954535590277
 30
0.0
 10
0.6393235948350694
 20
0.7108954535590277
 30
0.0
 10
0.6393235948350694
 20
0.7108954535590277
 30
0.0
  0
ENDBLK
  5
1D1
100
AcDbEntity
  8
LINE_ART
100
AcDbBlockEnd
  0
BLOCK
  5
1D4
100
AcDbEntity
  8
LINE_ART
 62
     7
100
AcDbBlockBegin
  2
AI9-BLK50
 70
     0
 10
0.0
 20
0.0
 30
0.0
  3
AI9-BLK50
  1

  0
SPLINE
  5
1D5
100
AcDbEntity
  8
LINE_ART
 62
     7
100
AcDbSpline
210
0.0
220
0.0
230
1.0
 70
     8
 71
     3
 72
    14
 73
    10
 74
     0
 42
0.00000001
 43
0.00000001
 40
0.0
 40
0.0
 40
0.0
 40
0.0
 40
1.0
 40
1.0
 40
1.0
 40
2.0
 40
2.0
 40
2.0
 40
3.0
 40
3.0
 40
3.0
 40
3.0
 10
0.6393235948350694
 20
-0.7108954535590277
 30
0.0
 10
0.6393235948350694
 20
-0.7108954535590277
 30
0.0
 10
0.6393235948350694
 20
-0.7108954535590277
 30
0.0
 10
0.6393235948350694
 20
-0.7108954535590277
 30
0.0
 10
0.6393235948350694
 20
0.0349677191840278
 30
0.0
 10
0.0347093370225694
 20
0.6392374674479167
 30
0.0
 10
-0.7109815809461805
 20
0.6392374674479167
 30
0.0
 10
-0.7109815809461805
 20
0.6392374674479167
 30
0.0
 10
-0.7109815809461805
 20
0.6392374674479167
 30
0.0
 10
-0.7109815809461805
 20
0.6392374674479167
 30
0.0
  0
ENDBLK
  5
1D6
100
AcDbEntity
  8
LINE_ART
100
AcDbBlockEnd
  0
BLOCK
  5
1D9
100
AcDbEntity
  8
LINE_ART
 62
     7
100
AcDbBlockBegin
  2
AI9-BLK51
 70
     0
 10
0.0
 20
0.0
 30
0.0
  3
AI9-BLK51
  1

  0
SPLINE
  5
1DA
100
AcDbEntity
  8
LINE_ART
 62
     7
100
AcDbSpline
210
0.0
220
0.0
230
1.0
 70
     8
 71
     3
 72
    14
 73
    10
 74
     0
 42
0.00000001
 43
0.00000001
 40
0.0
 40
0.0
 40
0.0
 40
0.0
 40
1.0
 40
1.0
 40
1.0
 40
2.0
 40
2.0
 40
2.0
 40
3.0
 40
3.0
 40
3.0
 40
3.0
 10
-1.3500467936197915
 20
-1.2465216742621528
 30
0.0
 10
-1.3500467936197915
 20
-1.2465216742621528
 30
0.0
 10
-1.3500467936197915
 20
-1.2465216742621528
 30
0.0
 10
-1.3500467936197915
 20
-1.2465216742621528
 30
0.0
 10
0.0839742024739583
 20
-1.2465216742621528
 30
0.0
 10
1.2465216742621528
 20
-0.0841464572482639
 30
0.0
 10
1.2465216742621528
 20
1.3500467936197915
 30
0.0
 10
1.2465216742621528
 20
1.3652052137586805
 30
0.0
 10
1.2463494194878471
 20
1.3800191243489581
 30
0.0
 10
1.2461771647135416
 20
1.3951775444878471
 30
0.0
  0
ENDBLK
  5
1DB
100
AcDbEntity
  8
LINE_ART
100
AcDbBlockEnd
  0
BLOCK
  5
1DE
100
AcDbEntity
  8
LINE_ART
 62
     7
100
AcDbBlockBegin
  2
AI9-BLK52
 70
     0
 10
0.0
 20
0.0
 30
0.0
  3
AI9-BLK52
  1

  0
SPLINE
  5
1DF
100
AcDbEntity
  8
LINE_ART
 62
     7
100
AcDbSpline
210
0.0
220
0.0
230
1.0
 70
     8
 71
     3
 72
    11
 73
     7
 74
     0
 42
0.00000001
 43
0.00000001
 40
0.0
 40
0.0
 40
0.0
 40
0.0
 40
1.0
 40
1.0
 40
1.0
 40
2.0
 40
2.0
 40
2.0
 40
2.0
 10
-1.3499606662326387
 20
-1.2364447699652776
 30
0.0
 10
-1.3499606662326387
 20
-1.2364447699652776
 30
0.0
 10
-1.3499606662326387
 20
-1.2364447699652776
 30
0.0
 10
-1.3499606662326387
 20
-1.2364447699652776
 30
0.0
 10
0.07596435546875
 20
-1.2364447699652776
 30
0.0
 10
1.2350667317708333
 20
-0.0864718967013889
 30
0.0
 10
1.2464355468749999
 20
1.3391086154513887
 30
0.0
  0
ENDBLK
  5
1E0
100
AcDbEntity
  8
LINE_ART
100
AcDbBlockEnd
  0
BLOCK
  5
1E3
100
AcDbEntity
  8
LINE_ART
 62
     7
100
AcDbBlockBegin
  2
AI9-BLK53
 70
     0
 10
0.0
 20
0.0
 30
0.0
  3
AI9-BLK53
  1

  0
SPLINE
  5
1E4
100
AcDbEntity
  8
LINE_ART
 62
     7
100
AcDbSpline
210
0.0
220
0.0
230
1.0
 70
     8
 71
     3
 72
    14
 73
    10
 74
     0
 42
0.00000001
 43
0.00000001
 40
0.0
 40
0.0
 40
0.0
 40
0.0
 40
1.0
 40
1.0
 40
1.0
 40
2.0
 40
2.0
 40
2.0
 40
3.0
 40
3.0
 40
3.0
 40
3.0
 10
-1.3240363226996528
 20
-1.2205112033420138
 30
0.0
 10
-1.3240363226996528
 20
-1.2205112033420138
 30
0.0
 10
-1.3240363226996528
 20
-1.2205112033420138
 30
0.0
 10
-1.3240363226996528
 20
-1.2205112033420138
 30
0.0
 10
0.0812181260850694
 20
-1.2205112033420138
 30
0.0
 10
1.2205112033420138
 20
-0.0812181260850694
 30
0.0
 10
1.2205112033420138
 20
1.3240363226996528
 30
0.0
 10
1.2205112033420138
 20
1.3305820041232637
 30
0.0
 10
1.2205112033420138
 20
1.3367831759982638
 30
0.0
 10
1.2205112033420138
 20
1.3433288574218749
 30
0.0
  0
ENDBLK
  5
1E5
100
AcDbEntity
  8
LINE_ART
100
AcDbBlockEnd
  0
BLOCK
  5
1E8
100
AcDbEntity
  8
LINE_ART
 62
     7
100
AcDbBlockBegin
  2
AI9-BLK54
 70
     0
 10
0.0
 20
0.0
 30
0.0
  3
AI9-BLK54
  1

  0
SPLINE
  5
1E9
100
AcDbEntity
  8
LINE_ART
 62
     7
100
AcDbSpline
210
0.0
220
0.0
230
1.0
 70
     8
 71
     3
 72
    14
 73
    10
 74
     0
 42
0.00000001
 43
0.00000001
 40
0.0
 40
0.0
 40
0.0
 40
0.0
 40
1.0
 40
1.0
 40
1.0
 40
2.0
 40
2.0
 40
2.0
 40
3.0
 40
3.0
 40
3.0
 40
3.0
 10
-1.2192192925347221
 20
1.3433288574218749
 30
0.0
 10
-1.2192192925347221
 20
1.3367831759982638
 30
0.0
 10
-1.2192192925347221
 20
1.3305820041232637
 30
0.0
 10
-1.2192192925347221
 20
1.3240363226996528
 30
0.0
 10
-1.2192192925347221
 20
-0.0812181260850694
 30
0.0
 10
-0.0800984700520833
 20
-1.2205112033420138
 30
0.0
 10
1.3253282335069443
 20
-1.2205112033420138
 30
0.0
 10
1.3253282335069443
 20
-1.2205112033420138
 30
0.0
 10
1.3253282335069443
 20
-1.2205112033420138
 30
0.0
 10
1.3253282335069443
 20
-1.2205112033420138
 30
0.0
  0
ENDBLK
  5
1EA
100
AcDbEntity
  8
LINE_ART
100
AcDbBlockEnd
  0
BLOCK
  5
1ED
100
AcDbEntity
  8
LINE_ART
 62
     7
100
AcDbBlockBegin
  2
AI9-BLK55
 70
     0
 10
0.0
 20
0.0
 30
0.0
  3
AI9-BLK55
  1

  0
SPLINE
  5
1EE
100
AcDbEntity
  8
LINE_ART
 62
     7
100
AcDbSpline
210
0.0
220
0.0
230
1.0
 70
     8
 71
     3
 72
    11
 73
     7
 74
     0
 42
0.00000001
 43
0.00000001
 40
0.0
 40
0.0
 40
0.0
 40
0.0
 40
1.0
 40
1.0
 40
1.0
 40
2.0
 40
2.0
 40
2.0
 40
2.0
 10
-1.3795023600260417
 20
1.3403143988715276
 30
0.0
 10
-1.3679612901475693
 20
-0.0856106228298611
 30
0.0
 10
-0.2088589138454861
 20
-1.2352389865451388
 30
0.0
 10
1.2170661078559026
 20
-1.2352389865451388
 30
0.0
 10
1.3121507432725694
 20
-1.2352389865451388
 30
0.0
 10
1.407235378689236
 20
-1.230071343315972
 30
0.0
 10
1.5018032497829861
 20
-1.2197360568576388
 30
0.0
  0
ENDBLK
  5
1EF
100
AcDbEntity
  8
LINE_ART
100
AcDbBlockEnd
  0
BLOCK
  5
1F2
100
AcDbEntity
  8
LINE_ART
 62
     7
100
AcDbBlockBegin
  2
AI9-BLK56
 70
     0
 10
0.0
 20
0.0
 30
0.0
  3
AI9-BLK56
  1

  0
SPLINE
  5
1F3
100
AcDbEntity
  8
LINE_ART
 62
     7
100
AcDbSpline
210
0.0
220
0.0
230
1.0
 70
     8
 71
     3
 72
    14
 73
    10
 74
     0
 42
0.00000001
 43
0.00000001
 40
0.0
 40
0.0
 40
0.0
 40
0.0
 40
1.0
 40
1.0
 40
1.0
 40
2.0
 40
2.0
 40
2.0
 40
3.0
 40
3.0
 40
3.0
 40
3.0
 10
0.6589606391059028
 20
0.5873887803819444
 30
0.0
 10
0.6589606391059028
 20
0.5873887803819444
 30
0.0
 10
0.6589606391059028
 20
0.5873887803819444
 30
0.0
 10
0.6589606391059028
 20
0.5873887803819444
 30
0.0
 10
-0.0293694390190972
 20
0.5873887803819444
 30
0.0
 10
-0.5873026529947916
 20
0.0292833116319444
 30
0.0
 10
-0.5873026529947916
 20
-0.6590467664930555
 30
0.0
 10
-0.5873026529947916
 20
-0.6590467664930555
 30
0.0
 10
-0.5873026529947916
 20
-0.6590467664930555
 30
0.0
 10
-0.5873026529947916
 20
-0.6590467664930555
 30
0.0
  0
ENDBLK
  5
1F4
100
AcDbEntity
  8
LINE_ART
100
AcDbBlockEnd
  0
BLOCK
  5
202
100
AcDbEntity
  8
LINE_ART
 62
     7
100
AcDbBlockBegin
  2
AI9-BLK57
 70
     0
 10
0.0
 20
0.0
 30
0.0
  3
AI9-BLK57
  1

  0
SPLINE
  5
206
100
AcDbEntity
  8
LINE_ART
  6
AI9-LTYPE3
 62
     7
100
AcDbSpline
210
0.0
220
0.0
230
1.0
 70
     8
 71
     3
 72
    17
 73
    13
 74
     0
 42
0.00000001
 43
0.00000001
 40
0.0
 40
0.0
 40
0.0
 40
0.0
 40
1.0
 40
1.0
 40
1.0
 40
2.0
 40
2.0
 40
2.0
 40
3.0
 40
3.0
 40
3.0
 40
4.0
 40
4.0
 40
4.0
 40
4.0
 10
-1.9474263509114582
 20
0.0000861273871528
 30
0.0
 10
-1.9474263509114582
 20
0.0000861273871528
 30
0.0
 10
-1.9474263509114582
 20
0.0000861273871528
 30
0.0
 10
-1.9474263509114582
 20
0.0000861273871528
 30
0.0
 10
-1.9474263509114582
 20
-1.0754726833767361
 30
0.0
 10
-1.0756449381510416
 20
-1.9474263509114582
 30
0.0
 10
-0.0000861273871528
 20
-1.9474263509114582
 30
0.0
 10
1.0754726833767361
 20
-1.9474263509114582
 30
0.0
 10
1.9474263509114582
 20
-1.0754726833767361
 30
0.0
 10
1.9474263509114582
 20
0.0000861273871528
 30
0.0
 10
1.9474263509114582
 20
0.0000861273871528
 30
0.0
 10
1.9474263509114582
 20
0.0000861273871528
 30
0.0
 10
1.9474263509114582
 20
0.0000861273871528
 30
0.0
  0
SPLINE
  5
204
100
AcDbEntity
  8
LINE_ART
  6
AI9-LTYPE2
 62
     7
100
AcDbSpline
210
0.0
220
0.0
230
1.0
 70
     8
 71
     3
 72
    17
 73
    13
 74
     0
 42
0.00000001
 43
0.00000001
 40
0.0
 40
0.0
 40
0.0
 40
0.0
 40
1.0
 40
1.0
 40
1.0
 40
2.0
 40
2.0
 40
2.0
 40
3.0
 40
3.0
 40
3.0
 40
4.0
 40
4.0
 40
4.0
 40
4.0
 10
1.9474263509114582
 20
0.0000861273871528
 30
0.0
 10
1.9474263509114582
 20
0.0000861273871528
 30
0.0
 10
1.9474263509114582
 20
0.0000861273871528
 30
0.0
 10
1.9474263509114582
 20
0.0000861273871528
 30
0.0
 10
1.9474263509114582
 20
1.0754726833767361
 30
0.0
 10
1.0754726833767361
 20
1.9474263509114582
 30
0.0
 10
-0.0000861273871528
 20
1.9474263509114582
 30
0.0
 10
-1.0756449381510416
 20
1.9474263509114582
 30
0.0
 10
-1.9474263509114582
 20
1.0754726833767361
 30
0.0
 10
-1.9474263509114582
 20
0.0000861273871528
 30
0.0
 10
-1.9474263509114582
 20
0.0000861273871528
 30
0.0
 10
-1.9474263509114582
 20
0.0000861273871528
 30
0.0
 10
-1.9474263509114582
 20
0.0000861273871528
 30
0.0
  0
ENDBLK
  5
207
100
AcDbEntity
  8
LINE_ART
100
AcDbBlockEnd
  0
BLOCK
  5
20B
100
AcDbEntity
  8
LINE_ART
 62
     7
100
AcDbBlockBegin
  2
AI9-BLK58
 70
     0
 10
0.0
 20
0.0
 30
0.0
  3
AI9-BLK58
  1

  0
SPLINE
  5
20D
100
AcDbEntity
  8
LINE_ART
 62
     7
100
AcDbSpline
210
0.0
220
0.0
230
1.0
 70
     8
 71
     3
 72
    17
 73
    13
 74
     0
 42
0.00000001
 43
0.00000001
 40
0.0
 40
0.0
 40
0.0
 40
0.0
 40
1.0
 40
1.0
 40
1.0
 40
2.0
 40
2.0
 40
2.0
 40
3.0
 40
3.0
 40
3.0
 40
4.0
 40
4.0
 40
4.0
 40
4.0
 10
-0.5972073025173611
 20
0.0001722547743056
 30
0.0
 10
-0.5972073025173611
 20
0.0001722547743056
 30
0.0
 10
-0.5972073025173611
 20
0.0001722547743056
 30
0.0
 10
-0.5972073025173611
 20
0.0001722547743056
 30
0.0
 10
-0.5972073025173611
 20
-0.3298678927951388
 30
0.0
 10
-0.3298678927951388
 20
-0.5972073025173611
 30
0.0
 10
0.0
 20
-0.5972073025173611
 30
0.0
 10
0.3298678927951388
 20
-0.5972073025173611
 30
0.0
 10
0.5972073025173611
 20
-0.3298678927951388
 30
0.0
 10
0.5972073025173611
 20
0.0001722547743056
 30
0.0
 10
0.5972073025173611
 20
0.0001722547743056
 30
0.0
 10
0.5972073025173611
 20
0.0001722547743056
 30
0.0
 10
0.5972073025173611
 20
0.0001722547743056
 30
0.0
  0
SPLINE
  5
20C
100
AcDbEntity
  8
LINE_ART
 62
     7
100
AcDbSpline
210
0.0
220
0.0
230
1.0
 70
     8
 71
     3
 72
    17
 73
    13
 74
     0
 42
0.00000001
 43
0.00000001
 40
0.0
 40
0.0
 40
0.0
 40
0.0
 40
1.0
 40
1.0
 40
1.0
 40
2.0
 40
2.0
 40
2.0
 40
3.0
 40
3.0
 40
3.0
 40
4.0
 40
4.0
 40
4.0
 40
4.0
 10
0.5972073025173611
 20
0.0001722547743056
 30
0.0
 10
0.5972073025173611
 20
0.0001722547743056
 30
0.0
 10
0.5972073025173611
 20
0.0001722547743056
 30
0.0
 10
0.5972073025173611
 20
0.0001722547743056
 30
0.0
 10
0.5972073025173611
 20
0.3298678927951388
 30
0.0
 10
0.3298678927951388
 20
0.5972073025173611
 30
0.0
 10
0.0
 20
0.5972073025173611
 30
0.0
 10
-0.3298678927951388
 20
0.5972073025173611
 30
0.0
 10
-0.5972073025173611
 20
0.3298678927951388
 30
0.0
 10
-0.5972073025173611
 20
0.0001722547743056
 30
0.0
 10
-0.5972073025173611
 20
0.0001722547743056
 30
0.0
 10
-0.5972073025173611
 20
0.0001722547743056
 30
0.0
 10
-0.5972073025173611
 20
0.0001722547743056
 30
0.0
  0
ENDBLK
  5
20E
100
AcDbEntity
  8
LINE_ART
100
AcDbBlockEnd
  0
BLOCK
  5
214
100
AcDbEntity
  8
LINE_ART
 62
     7
100
AcDbBlockBegin
  2
AI9-BLK59
 70
     0
 10
0.0
 20
0.0
 30
0.0
  3
AI9-BLK59
  1

  0
SPLINE
  5
216
100
AcDbEntity
  8
LINE_ART
 62
     7
100
AcDbSpline
210
0.0
220
0.0
230
1.0
 70
     8
 71
     3
 72
    17
 73
    13
 74
     0
 42
0.00000001
 43
0.00000001
 40
0.0
 40
0.0
 40
0.0
 40
0.0
 40
1.0
 40
1.0
 40
1.0
 40
2.0
 40
2.0
 40
2.0
 40
3.0
 40
3.0
 40
3.0
 40
4.0
 40
4.0
 40
4.0
 40
4.0
 10
-0.5972073025173611
 20
0.0
 30
0.0
 10
-0.5972073025173611
 20
0.0
 30
0.0
 10
-0.5972073025173611
 20
0.0
 30
0.0
 10
-0.5972073025173611
 20
0.0
 30
0.0
 10
-0.5972073025173611
 20
-0.3298678927951388
 30
0.0
 10
-0.3298678927951388
 20
-0.5972073025173611
 30
0.0
 10
0.0
 20
-0.5972073025173611
 30
0.0
 10
0.3298678927951388
 20
-0.5972073025173611
 30
0.0
 10
0.5972073025173611
 20
-0.3298678927951388
 30
0.0
 10
0.5972073025173611
 20
0.0
 30
0.0
 10
0.5972073025173611
 20
0.0
 30
0.0
 10
0.5972073025173611
 20
0.0
 30
0.0
 10
0.5972073025173611
 20
0.0
 30
0.0
  0
SPLINE
  5
215
100
AcDbEntity
  8
LINE_ART
 62
     7
100
AcDbSpline
210
0.0
220
0.0
230
1.0
 70
     8
 71
     3
 72
    17
 73
    13
 74
     0
 42
0.00000001
 43
0.00000001
 40
0.0
 40
0.0
 40
0.0
 40
0.0
 40
1.0
 40
1.0
 40
1.0
 40
2.0
 40
2.0
 40
2.0
 40
3.0
 40
3.0
 40
3.0
 40
4.0
 40
4.0
 40
4.0
 40
4.0
 10
0.5972073025173611
 20
0.0
 30
0.0
 10
0.5972073025173611
 20
0.0
 30
0.0
 10
0.5972073025173611
 20
0.0
 30
0.0
 10
0.5972073025173611
 20
0.0
 30
0.0
 10
0.5972073025173611
 20
0.3296956380208333
 30
0.0
 10
0.3298678927951388
 20
0.5972073025173611
 30
0.0
 10
0.0
 20
0.5972073025173611
 30
0.0
 10
-0.3298678927951388
 20
0.5972073025173611
 30
0.0
 10
-0.5972073025173611
 20
0.3296956380208333
 30
0.0
 10
-0.5972073025173611
 20
0.0
 30
0.0
 10
-0.5972073025173611
 20
0.0
 30
0.0
 10
-0.5972073025173611
 20
0.0
 30
0.0
 10
-0.5972073025173611
 20
0.0
 30
0.0
  0
ENDBLK
  5
217
100
AcDbEntity
  8
LINE_ART
100
AcDbBlockEnd
  0
BLOCK
  5
21C
100
AcDbEntity
  8
LINE_ART
 62
     7
100
AcDbBlockBegin
  2
AI9-BLK60
 70
     0
 10
0.0
 20
0.0
 30
0.0
  3
AI9-BLK60
  1

  0
SPLINE
  5
21E
100
AcDbEntity
  8
LINE_ART
 62
     7
100
AcDbSpline
210
0.0
220
0.0
230
1.0
 70
     8
 71
     3
 72
    17
 73
    13
 74
     0
 42
0.00000001
 43
0.00000001
 40
0.0
 40
0.0
 40
0.0
 40
0.0
 40
1.0
 40
1.0
 40
1.0
 40
2.0
 40
2.0
 40
2.0
 40
3.0
 40
3.0
 40
3.0
 40
4.0
 40
4.0
 40
4.0
 40
4.0
 10
-0.5971211751302082
 20
0.0
 30
0.0
 10
-0.5971211751302082
 20
0.0
 30
0.0
 10
-0.5971211751302082
 20
0.0
 30
0.0
 10
-0.5971211751302082
 20
0.0
 30
0.0
 10
-0.5971211751302082
 20
-0.3298678927951388
 30
0.0
 10
-0.3297817654079861
 20
-0.5972073025173611
 30
0.0
 10
0.0000861273871528
 20
-0.5972073025173611
 30
0.0
 10
0.3297817654079861
 20
-0.5972073025173611
 30
0.0
 10
0.5971211751302082
 20
-0.3298678927951388
 30
0.0
 10
0.5971211751302082
 20
0.0
 30
0.0
 10
0.5971211751302082
 20
0.0
 30
0.0
 10
0.5971211751302082
 20
0.0
 30
0.0
 10
0.5971211751302082
 20
0.0
 30
0.0
  0
SPLINE
  5
21D
100
AcDbEntity
  8
LINE_ART
 62
     7
100
AcDbSpline
210
0.0
220
0.0
230
1.0
 70
     8
 71
     3
 72
    17
 73
    13
 74
     0
 42
0.00000001
 43
0.00000001
 40
0.0
 40
0.0
 40
0.0
 40
0.0
 40
1.0
 40
1.0
 40
1.0
 40
2.0
 40
2.0
 40
2.0
 40
3.0
 40
3.0
 40
3.0
 40
4.0
 40
4.0
 40
4.0
 40
4.0
 10
0.5971211751302082
 20
0.0
 30
0.0
 10
0.5971211751302082
 20
0.0
 30
0.0
 10
0.5971211751302082
 20
0.0
 30
0.0
 10
0.5971211751302082
 20
0.0
 30
0.0
 10
0.5971211751302082
 20
0.3296956380208333
 30
0.0
 10
0.3297817654079861
 20
0.5972073025173611
 30
0.0
 10
0.0000861273871528
 20
0.5972073025173611
 30
0.0
 10
-0.3297817654079861
 20
0.5972073025173611
 30
0.0
 10
-0.5971211751302082
 20
0.3296956380208333
 30
0.0
 10
-0.5971211751302082
 20
0.0
 30
0.0
 10
-0.5971211751302082
 20
0.0
 30
0.0
 10
-0.5971211751302082
 20
0.0
 30
0.0
 10
-0.5971211751302082
 20
0.0
 30
0.0
  0
ENDBLK
  5
21F
100
AcDbEntity
  8
LINE_ART
100
AcDbBlockEnd
  0
BLOCK
  5
224
100
AcDbEntity
  8
LINE_ART
 62
     7
100
AcDbBlockBegin
  2
AI9-BLK61
 70
     0
 10
0.0
 20
0.0
 30
0.0
  3
AI9-BLK61
  1

  0
SPLINE
  5
226
100
AcDbEntity
  8
LINE_ART
 62
     7
100
AcDbSpline
210
0.0
220
0.0
230
1.0
 70
     8
 71
     3
 72
    17
 73
    13
 74
     0
 42
0.00000001
 43
0.00000001
 40
0.0
 40
0.0
 40
0.0
 40
0.0
 40
1.0
 40
1.0
 40
1.0
 40
2.0
 40
2.0
 40
2.0
 40
3.0
 40
3.0
 40
3.0
 40
4.0
 40
4.0
 40
4.0
 40
4.0
 10
-0.5972073025173611
 20
0.0
 30
0.0
 10
-0.5972073025173611
 20
0.0
 30
0.0
 10
-0.5972073025173611
 20
0.0
 30
0.0
 10
-0.5972073025173611
 20
0.0
 30
0.0
 10
-0.5972073025173611
 20
-0.3298678927951388
 30
0.0
 10
-0.3298678927951388
 20
-0.5972073025173611
 30
0.0
 10
0.0
 20
-0.5972073025173611
 30
0.0
 10
0.3298678927951388
 20
-0.5972073025173611
 30
0.0
 10
0.5972073025173611
 20
-0.3298678927951388
 30
0.0
 10
0.5972073025173611
 20
0.0
 30
0.0
 10
0.5972073025173611
 20
0.0
 30
0.0
 10
0.5972073025173611
 20
0.0
 30
0.0
 10
0.5972073025173611
 20
0.0
 30
0.0
  0
SPLINE
  5
225
100
AcDbEntity
  8
LINE_ART
 62
     7
100
AcDbSpline
210
0.0
220
0.0
230
1.0
 70
     8
 71
     3
 72
    17
 73
    13
 74
     0
 42
0.00000001
 43
0.00000001
 40
0.0
 40
0.0
 40
0.0
 40
0.0
 40
1.0
 40
1.0
 40
1.0
 40
2.0
 40
2.0
 40
2.0
 40
3.0
 40
3.0
 40
3.0
 40
4.0
 40
4.0
 40
4.0
 40
4.0
 10
0.5972073025173611
 20
0.0
 30
0.0
 10
0.5972073025173611
 20
0.0
 30
0.0
 10
0.5972073025173611
 20
0.0
 30
0.0
 10
0.5972073025173611
 20
0.0
 30
0.0
 10
0.5972073025173611
 20
0.3296956380208333
 30
0.0
 10
0.3298678927951388
 20
0.5972073025173611
 30
0.0
 10
0.0
 20
0.5972073025173611
 30
0.0
 10
-0.3298678927951388
 20
0.5972073025173611
 30
0.0
 10
-0.5972073025173611
 20
0.3296956380208333
 30
0.0
 10
-0.5972073025173611
 20
0.0
 30
0.0
 10
-0.5972073025173611
 20
0.0
 30
0.0
 10
-0.5972073025173611
 20
0.0
 30
0.0
 10
-0.5972073025173611
 20
0.0
 30
0.0
  0
ENDBLK
  5
227
100
AcDbEntity
  8
LINE_ART
100
AcDbBlockEnd
  0
ENDSEC
  0
SECTION
  2
ENTITIES
  0
SPLINE
  5
236
100
AcDbEntity
  8
LINE_ART
 62
     7
100
AcDbSpline
210
0.0
220
0.0
230
1.0
 70
     8
 71
     3
 72
    11
 73
     7
 74
     0
 42
0.00000001
 43
0.00000001
 40
0.0
 40
0.0
 40
0.0
 40
0.0
 40
1.0
 40
1.0
 40
1.0
 40
2.0
 40
2.0
 40
2.0
 40
2.0
 10
79.963077799479166
 20
181.84023573133678
 30
0.0
 10
79.963077799479166
 20
181.84023573133678
 30
0.0
 10
79.963077799479166
 20
181.84023573133678
 30
0.0
 10
79.963077799479166
 20
181.84023573133678
 30
0.0
 10
79.963077799479166
 20
182.07519124348957
 30
0.0
 10
79.793923611111097
 20
182.27604031032985
 30
0.0
 10
79.562240939670133
 20
182.31565890842012
 30
0.0
  0
LINE
  5
235
100
AcDbEntity
  8
LINE_ART
 62
     7
100
AcDbLine
 10
75.741975
 20
182.972639
 30
0.0
 11
79.562241
 21
182.315659
 31
0.0
  0
LINE
  5
234
100
AcDbEntity
  8
LINE_ART
 62
     7
100
AcDbLine
 10
75.741975
 20
180.707833
 30
0.0
 11
79.562241
 21
181.364468
 31
0.0
  0
SPLINE
  5
233
100
AcDbEntity
  8
LINE_ART
 62
     7
100
AcDbSpline
210
0.0
220
0.0
230
1.0
 70
     8
 71
     3
 72
    11
 73
     7
 74
     0
 42
0.00000001
 43
0.00000001
 40
0.0
 40
0.0
 40
0.0
 40
0.0
 40
1.0
 40
1.0
 40
1.0
 40
2.0
 40
2.0
 40
2.0
 40
2.0
 10
79.562240939670133
 20
181.36446804470484
 30
0.0
 10
79.793923611111097
 20
181.40443115234373
 30
0.0
 10
79.963077799479166
 20
181.60528021918401
 30
0.0
 10
79.963077799479166
 20
181.84023573133678
 30
0.0
 10
79.963077799479166
 20
181.84023573133678
 30
0.0
 10
79.963077799479166
 20
181.84023573133678
 30
0.0
 10
79.963077799479166
 20
181.84023573133678
 30
0.0
  0
LINE
  5
232
100
AcDbEntity
  8
LINE_ART
 62
     7
100
AcDbLine
 10
75.741975
 20
182.972639
 30
0.0
 11
71.921708
 21
182.315659
 31
0.0
  0
SPLINE
  5
231
100
AcDbEntity
  8
LINE_ART
 62
     7
100
AcDbSpline
210
0.0
220
0.0
230
1.0
 70
     8
 71
     3
 72
    11
 73
     7
 74
     0
 42
0.00000001
 43
0.00000001
 40
0.0
 40
0.0
 40
0.0
 40
0.0
 40
1.0
 40
1.0
 40
1.0
 40
2.0
 40
2.0
 40
2.0
 40
2.0
 10
71.921708170572913
 20
182.31565890842012
 30
0.0
 10
71.690025499131934
 20
182.27604031032985
 30
0.0
 10
71.52087131076388
 20
182.07519124348957
 30
0.0
 10
71.52087131076388
 20
181.84023573133678
 30
0.0
 10
71.52087131076388
 20
181.84023573133678
 30
0.0
 10
71.52087131076388
 20
181.84023573133678
 30
0.0
 10
71.52087131076388
 20
181.84023573133678
 30
0.0
  0
SPLINE
  5
230
100
AcDbEntity
  8
LINE_ART
 62
     7
100
AcDbSpline
210
0.0
220
0.0
230
1.0
 70
     8
 71
     3
 72
    11
 73
     7
 74
     0
 42
0.00000001
 43
0.00000001
 40
0.0
 40
0.0
 40
0.0
 40
0.0
 40
1.0
 40
1.0
 40
1.0
 40
2.0
 40
2.0
 40
2.0
 40
2.0
 10
71.52087131076388
 20
181.84023573133678
 30
0.0
 10
71.52087131076388
 20
181.84023573133678
 30
0.0
 10
71.52087131076388
 20
181.84023573133678
 30
0.0
 10
71.52087131076388
 20
181.84023573133678
 30
0.0
 10
71.52087131076388
 20
181.60528021918401
 30
0.0
 10
71.690025499131934
 20
181.40443115234373
 30
0.0
 10
71.921708170572913
 20
181.36446804470484
 30
0.0
  0
LINE
  5
22F
100
AcDbEntity
  8
LINE_ART
 62
     7
100
AcDbLine
 10
75.741975
 20
180.707833
 30
0.0
 11
71.921708
 21
181.364468
 31
0.0
  0
MTEXT
  5
22E
100
AcDbEntity
  8
LINE_ART
 62
     7
100
AcDbMText
 10
72.84396
 20
182.142997
 30
0.0
 40
0.61282
 41
0.0
 71
     1
 72
     2
  1
\W1.45;\fHelvetica|b0|i0;BOBRICK
  7
STD
210
0.0
220
0.0
230
1.0
 11
1.000001
 21
0.0
 31
0.0
  0
LINE
  5
22D
100
AcDbEntity
  8
LINE_ART
 62
     7
100
AcDbLine
 10
153.588902
 20
219.37145
 30
0.0
 11
152.343156
 21
218.954249
 31
0.0
  0
LINE
  5
22C
100
AcDbEntity
  8
LINE_ART
 62
     7
100
AcDbLine
 10
151.225911
 20
218.580457
 30
0.0
 11
149.679408
 21
218.062659
 31
0.0
  0
LINE
  5
22B
100
AcDbEntity
  8
LINE_ART
 62
     7
100
AcDbLine
 10
148.562508
 20
217.688694
 30
0.0
 11
143.892337
 21
216.125309
 31
0.0
  0
LINE
  5
22A
100
AcDbEntity
  8
LINE_ART
 62
     7
100
AcDbLine
 10
90.095965
 20
168.146326
 30
0.0
 11
90.095965
 21
169.280796
 31
0.0
  0
LINE
  5
229
100
AcDbEntity
  8
LINE_ART
 62
     7
100
AcDbLine
 10
158.235647
 20
216.961434
 30
0.0
 11
159.513433
 21
216.961434
 31
0.0
  0
LINE
  5
228
100
AcDbEntity
  8
LINE_ART
 62
     7
100
AcDbLine
 10
158.235647
 20
198.461099
 30
0.0
 11
159.513433
 21
198.461099
 31
0.0
  0
INSERT
  5
223
100
AcDbEntity
  8
LINE_ART
 62
     7
100
AcDbBlockReference
  2
AI9-BLK61
 10
45.595667
 20
216.961434
 30
0.0
  0
LINE
  5
221
100
AcDbEntity
  8
LINE_ART
 62
     7
100
AcDbLine
 10
44.314435
 20
216.961434
 30
0.0
 11
46.835212
 21
216.961434
 31
0.0
  0
LINE
  5
220
100
AcDbEntity
  8
LINE_ART
 62
     7
100
AcDbLine
 10
45.595667
 20
215.89156
 30
0.0
 11
45.595667
 21
218.157399
 31
0.0
  0
INSERT
  5
21B
100
AcDbEntity
  8
LINE_ART
 62
     7
100
AcDbBlockReference
  2
AI9-BLK60
 10
86.491103
 20
216.961434
 30
0.0
  0
LINE
  5
219
100
AcDbEntity
  8
LINE_ART
 62
     7
100
AcDbLine
 10
85.209958
 20
216.961434
 30
0.0
 11
87.730735
 21
216.961434
 31
0.0
  0
LINE
  5
218
100
AcDbEntity
  8
LINE_ART
 62
     7
100
AcDbLine
 10
86.491189
 20
215.89156
 30
0.0
 11
86.491189
 21
218.157399
 31
0.0
  0
INSERT
  5
213
100
AcDbEntity
  8
LINE_ART
 62
     7
100
AcDbBlockReference
  2
AI9-BLK59
 10
88.809222
 20
198.461099
 30
0.0
  0
LINE
  5
211
100
AcDbEntity
  8
LINE_ART
 62
     7
100
AcDbLine
 10
87.528163
 20
198.461099
 30
0.0
 11
90.048939
 21
198.461099
 31
0.0
  0
LINE
  5
210
100
AcDbEntity
  8
LINE_ART
 62
     7
100
AcDbLine
 10
43.045262
 20
174.022281
 30
0.0
 11
43.045262
 21
176.28812
 31
0.0
  0
LINE
  5
20F
100
AcDbEntity
  8
LINE_ART
 62
     7
100
AcDbLine
 10
41.764204
 20
175.092327
 30
0.0
 11
44.28498
 21
175.092327
 31
0.0
  0
INSERT
  5
20A
100
AcDbEntity
  8
LINE_ART
 62
     7
100
AcDbBlockReference
  2
AI9-BLK58
 10
43.045262
 20
175.092155
 30
0.0
  0
LINE
  5
208
100
AcDbEntity
  8
LINE_ART
 62
     7
100
AcDbLine
 10
158.235647
 20
175.092327
 30
0.0
 11
159.513433
 21
175.092327
 31
0.0
  0
INSERT
  5
201
100
AcDbEntity
  8
LINE_ART
 62
     7
100
AcDbBlockReference
  2
AI9-BLK57
 10
88.809308
 20
194.241632
 30
0.0
  0
LINE
  5
1FF
100
AcDbEntity
  8
LINE_ART
 62
     7
100
AcDbLine
 10
85.536209
 20
194.241718
 30
0.0
 11
91.927894
 21
194.241718
 31
0.0
  0
LINE
  5
1FE
100
AcDbEntity
  8
LINE_ART
 62
     7
100
AcDbLine
 10
156.14034
 20
206.83492
 30
0.0
 11
156.61473
 21
206.83492
 31
0.0
  0
LINE
  5
1FD
100
AcDbEntity
  8
LINE_ART
 62
     7
100
AcDbLine
 10
156.14034
 20
206.523311
 30
0.0
 11
156.14034
 21
206.048922
 31
0.0
  0
LINE
  5
1FC
100
AcDbEntity
  8
LINE_ART
 62
     7
100
AcDbLine
 10
156.14034
 20
206.523311
 30
0.0
 11
156.61473
 21
206.523311
 31
0.0
  0
LINE
  5
1FB
100
AcDbEntity
  8
LINE_ART
 62
     7
100
AcDbLine
 10
155.828559
 20
206.523311
 30
0.0
 11
155.828559
 21
206.048922
 31
0.0
  0
LINE
  5
1FA
100
AcDbEntity
  8
LINE_ART
 62
     7
100
AcDbLine
 10
156.14034
 20
207.30931
 30
0.0
 11
156.14034
 21
206.83492
 31
0.0
  0
LINE
  5
1F9
100
AcDbEntity
  8
LINE_ART
 62
     7
100
AcDbLine
 10
155.828559
 20
207.30931
 30
0.0
 11
155.828559
 21
206.83492
 31
0.0
  0
LINE
  5
1F8
100
AcDbEntity
  8
LINE_ART
 62
     7
100
AcDbLine
 10
155.354169
 20
206.523311
 30
0.0
 11
155.828559
 21
206.523311
 31
0.0
  0
LINE
  5
1F7
100
AcDbEntity
  8
LINE_ART
 62
     7
100
AcDbLine
 10
155.354169
 20
206.83492
 30
0.0
 11
155.828559
 21
206.83492
 31
0.0
  0
CIRCLE
  5
1F6
100
AcDbEntity
  8
LINE_ART
 62
     7
100
AcDbCircle
 10
155.98445
 20
206.67903
 30
0.0
 40
0.649228
  0
MTEXT
  5
1F5
100
AcDbEntity
  8
LINE_ART
 62
     7
100
AcDbMText
 10
67.766062
 20
179.877397
 30
0.0
 40
1.287954
 41
0.0
 71
     1
 72
     2
  1
\W0.74;\fHelvetica|b0|i0;AUTOMATIC HAND DRYER
  7
STD
210
0.0
220
0.0
230
1.0
 11
1.000001
 21
0.0
 31
0.0
  0
INSERT
  5
1F1
100
AcDbEntity
  8
LINE_ART
 62
     7
100
AcDbBlockReference
  2
AI9-BLK56
 10
66.083391
 20
175.686262
 30
0.0
  0
INSERT
  5
1EC
100
AcDbEntity
  8
LINE_ART
 62
     7
100
AcDbBlockReference
  2
AI9-BLK55
 10
39.884646
 20
172.189662
 30
0.0
  0
INSERT
  5
1E7
100
AcDbEntity
  8
LINE_ART
 62
     7
100
AcDbBlockReference
  2
AI9-BLK54
 10
38.746472
 20
168.847661
 30
0.0
  0
INSERT
  5
1E2
100
AcDbEntity
  8
LINE_ART
 62
     7
100
AcDbBlockReference
  2
AI9-BLK53
 10
93.106375
 20
168.847661
 30
0.0
  0
INSERT
  5
1DD
100
AcDbEntity
  8
LINE_ART
 62
     7
100
AcDbBlockReference
  2
AI9-BLK52
 10
92.099977
 20
171.891144
 30
0.0
  0
INSERT
  5
1D8
100
AcDbEntity
  8
LINE_ART
 62
     7
100
AcDbBlockReference
  2
AI9-BLK51
 10
86.016886
 20
177.520172
 30
0.0
  0
INSERT
  5
1D3
100
AcDbEntity
  8
LINE_ART
 62
     7
100
AcDbBlockReference
  2
AI9-BLK50
 10
85.333034
 20
182.982457
 30
0.0
  0
INSERT
  5
1CE
100
AcDbEntity
  8
LINE_ART
 62
     7
100
AcDbBlockReference
  2
AI9-BLK49
 10
85.333034
 20
178.133141
 30
0.0
  0
INSERT
  5
1C9
100
AcDbEntity
  8
LINE_ART
 62
     7
100
AcDbBlockReference
  2
AI9-BLK48
 10
66.150829
 20
178.133141
 30
0.0
  0
INSERT
  5
1C4
100
AcDbEntity
  8
LINE_ART
 62
     7
100
AcDbBlockReference
  2
AI9-BLK47
 10
66.991777
 20
182.141595
 30
0.0
  0
LINE
  5
1C2
100
AcDbEntity
  8
LINE_ART
 62
     7
100
AcDbLine
 10
85.972358
 20
178.844036
 30
0.0
 11
85.972358
 21
182.271562
 31
0.0
  0
LINE
  5
1C1
100
AcDbEntity
  8
LINE_ART
 62
     7
100
AcDbLine
 10
65.511591
 20
178.844036
 30
0.0
 11
65.511591
 21
180.557971
 31
0.0
  0
LINE
  5
1C0
100
AcDbEntity
  8
LINE_ART
 62
     7
100
AcDbLine
 10
84.622053
 20
183.621695
 30
0.0
 11
68.575487
 21
183.621695
 31
0.0
  0
LINE
  5
1BF
100
AcDbEntity
  8
LINE_ART
 62
     7
100
AcDbLine
 10
84.622053
 20
177.493903
 30
0.0
 11
66.861724
 21
177.493903
 31
0.0
  0
INSERT
  5
1BB
100
AcDbEntity
  8
LINE_ART
 62
     7
100
AcDbBlockReference
  2
AI9-BLK46
 10
46.922373
 20
214.674666
 30
0.0
  0
INSERT
  5
1B6
100
AcDbEntity
  8
LINE_ART
 62
     7
100
AcDbBlockReference
  2
AI9-BLK45
 10
84.931681
 20
214.674666
 30
0.0
  0
INSERT
  5
1B1
100
AcDbEntity
  8
LINE_ART
 62
     7
100
AcDbBlockReference
  2
AI9-BLK44
 10
39.028367
 20
220.843195
 30
0.0
  0
INSERT
  5
1AC
100
AcDbEntity
  8
LINE_ART
 62
     7
100
AcDbBlockReference
  2
AI9-BLK43
 10
39.273744
 20
219.961423
 30
0.0
  0
INSERT
  5
1A7
100
AcDbEntity
  8
LINE_ART
 62
     7
100
AcDbBlockReference
  2
AI9-BLK42
 10
92.825686
 20
220.843195
 30
0.0
  0
INSERT
  5
1A2
100
AcDbEntity
  8
LINE_ART
 62
     7
100
AcDbBlockReference
  2
AI9-BLK41
 10
92.581429
 20
219.961423
 30
0.0
  0
LINE
  5
1A0
100
AcDbEntity
  8
LINE_ART
 62
     7
100
AcDbLine
 10
91.76787
 20
168.146326
 30
0.0
 11
91.76787
 21
169.280796
 31
0.0
  0
LINE
  5
19F
100
AcDbEntity
  8
LINE_ART
 62
     7
100
AcDbLine
 10
40.08627
 20
168.146326
 30
0.0
 11
40.08627
 21
169.280796
 31
0.0
  0
LINE
  5
19E
100
AcDbEntity
  8
LINE_ART
 62
     7
100
AcDbLine
 10
83.15427
 20
168.146326
 30
0.0
 11
83.15427
 21
169.280796
 31
0.0
  0
LINE
  5
19D
100
AcDbEntity
  8
LINE_ART
 62
     7
100
AcDbLine
 10
74.54067
 20
168.146326
 30
0.0
 11
74.54067
 21
169.280796
 31
0.0
  0
LINE
  5
19C
100
AcDbEntity
  8
LINE_ART
 62
     7
100
AcDbLine
 10
65.92707
 20
168.146326
 30
0.0
 11
65.92707
 21
169.280796
 31
0.0
  0
LINE
  5
19B
100
AcDbEntity
  8
LINE_ART
 62
     7
100
AcDbLine
 10
57.31347
 20
168.146326
 30
0.0
 11
57.31347
 21
169.280796
 31
0.0
  0
LINE
  5
19A
100
AcDbEntity
  8
LINE_ART
 62
     7
100
AcDbLine
 10
48.69987
 20
168.146326
 30
0.0
 11
48.69987
 21
169.280796
 31
0.0
  0
LINE
  5
199
100
AcDbEntity
  8
LINE_ART
 62
     7
100
AcDbLine
 10
90.095965
 20
168.905625
 30
0.0
 11
40.08627
 21
168.905625
 31
0.0
  0
LINE
  5
198
100
AcDbEntity
  8
LINE_ART
 62
     7
100
AcDbLine
 10
90.095965
 20
168.503927
 30
0.0
 11
40.08627
 21
168.503927
 31
0.0
  0
LINE
  5
197
100
AcDbEntity
  8
LINE_ART
 62
     7
100
AcDbLine
 10
66.036107
 20
169.904013
 30
0.0
 11
46.349109
 21
169.904013
 31
0.0
  0
LINE
  5
196
100
AcDbEntity
  8
LINE_ART
 62
     7
100
AcDbLine
 10
66.036107
 20
170.521719
 30
0.0
 11
46.349109
 21
170.521719
 31
0.0
  0
LINE
  5
195
100
AcDbEntity
  8
LINE_ART
 62
     7
100
AcDbLine
 10
51.824055
 20
169.280796
 30
0.0
 11
51.824055
 21
171.098083
 31
0.0
  0
LINE
  5
194
100
AcDbEntity
  8
LINE_ART
 62
     7
100
AcDbLine
 10
57.299
 20
169.280796
 30
0.0
 11
57.299
 21
171.098083
 31
0.0
  0
LINE
  5
193
100
AcDbEntity
  8
LINE_ART
 62
     7
100
AcDbLine
 10
62.773946
 20
169.280796
 30
0.0
 11
62.773946
 21
171.098083
 31
0.0
  0
LINE
  5
192
100
AcDbEntity
  8
LINE_ART
 62
     7
100
AcDbLine
 10
65.92707
 20
169.280796
 30
0.0
 11
65.92707
 21
171.098083
 31
0.0
  0
LINE
  5
191
100
AcDbEntity
  8
LINE_ART
 62
     7
100
AcDbLine
 10
91.76787
 20
168.146326
 30
0.0
 11
40.08627
 21
168.146326
 31
0.0
  0
LINE
  5
190
100
AcDbEntity
  8
LINE_ART
 62
     7
100
AcDbLine
 10
40.08627
 20
167.62715
 30
0.0
 11
40.0718
 21
167.62715
 31
0.0
  0
LINE
  5
18F
100
AcDbEntity
  8
LINE_ART
 62
     7
100
AcDbLine
 10
91.76787
 20
169.280796
 30
0.0
 11
40.08627
 21
169.280796
 31
0.0
  0
LINE
  5
18E
100
AcDbEntity
  8
LINE_ART
 62
     7
100
AcDbLine
 10
40.08627
 20
167.62715
 30
0.0
 11
40.08627
 21
169.280796
 31
0.0
  0
LINE
  5
18D
100
AcDbEntity
  8
LINE_ART
 62
     7
100
AcDbLine
 10
91.76787
 20
167.62715
 30
0.0
 11
91.76787
 21
169.280796
 31
0.0
  0
LINE
  5
18C
100
AcDbEntity
  8
LINE_ART
 62
     7
100
AcDbLine
 10
66.036107
 20
169.280796
 30
0.0
 11
66.036107
 21
171.098083
 31
0.0
  0
LINE
  5
18B
100
AcDbEntity
  8
LINE_ART
 62
     7
100
AcDbLine
 10
46.349109
 20
169.280796
 30
0.0
 11
46.349109
 21
171.098083
 31
0.0
  0
LINE
  5
18A
100
AcDbEntity
  8
LINE_ART
 62
     7
100
AcDbLine
 10
66.036107
 20
171.098083
 30
0.0
 11
46.349109
 21
171.098083
 31
0.0
  0
LINE
  5
189
100
AcDbEntity
  8
LINE_ART
 62
     7
100
AcDbLine
 10
65.496088
 20
171.308923
 30
0.0
 11
71.405805
 21
170.6547
 31
0.0
  0
LINE
  5
188
100
AcDbEntity
  8
LINE_ART
 62
     7
100
AcDbLine
 10
65.870398
 20
175.917772
 30
0.0
 11
71.405805
 21
170.6547
 31
0.0
  0
LINE
  5
187
100
AcDbEntity
  8
LINE_ART
 62
     7
100
AcDbLine
 10
90.750016
 20
170.6547
 30
0.0
 11
71.405805
 21
170.6547
 31
0.0
  0
LINE
  5
186
100
AcDbEntity
  8
LINE_ART
 62
     7
100
AcDbLine
 10
84.666839
 20
176.27365
 30
0.0
 11
66.742352
 21
176.27365
 31
0.0
  0
LINE
  5
185
100
AcDbEntity
  8
LINE_ART
 62
     7
100
AcDbLine
 10
65.496088
 20
171.308923
 30
0.0
 11
65.496088
 21
175.027215
 31
0.0
  0
LINE
  5
184
100
AcDbEntity
  8
LINE_ART
 62
     7
100
AcDbLine
 10
94.326887
 20
170.19099
 30
0.0
 11
93.956194
 21
219.398839
 31
0.0
  0
LINE
  5
183
100
AcDbEntity
  8
LINE_ART
 62
     7
100
AcDbLine
 10
93.346412
 20
173.230253
 30
0.0
 11
93.711593
 21
218.482616
 31
0.0
  0
LINE
  5
182
100
AcDbEntity
  8
LINE_ART
 62
     7
100
AcDbLine
 10
87.263063
 20
178.91535
 30
0.0
 11
86.677052
 21
212.625609
 31
0.0
  0
LINE
  5
181
100
AcDbEntity
  8
LINE_ART
 62
     7
100
AcDbLine
 10
158.070627
 20
223.603234
 30
0.0
 11
144.767391
 21
217.719527
 31
0.0
  0
LINE
  5
180
100
AcDbEntity
  8
LINE_ART
 62
     7
100
AcDbLine
 10
162.657427
 20
224.504126
 30
0.0
 11
158.070627
 21
223.603234
 31
0.0
  0
LINE
  5
17F
100
AcDbEntity
  8
LINE_ART
 62
     7
100
AcDbLine
 10
143.892337
 20
216.125309
 30
0.0
 11
144.767391
 21
217.719527
 31
0.0
  0
INSERT
  5
17B
100
AcDbEntity
  8
LINE_ART
 62
     7
100
AcDbBlockReference
  2
AI9-BLK40
 10
65.926984
 20
217.171929
 30
0.0
  0
INSERT
  5
176
100
AcDbEntity
  8
LINE_ART
 62
     7
100
AcDbBlockReference
  2
AI9-BLK39
 10
65.92707
 20
222.460409
 30
0.0
  0
LINE
  5
174
100
AcDbEntity
  8
LINE_ART
 62
     7
100
AcDbLine
 10
44.458957
 20
171.308923
 30
0.0
 11
45.177087
 21
212.625609
 31
0.0
  0
LINE
  5
173
100
AcDbEntity
  8
LINE_ART
 62
     7
100
AcDbLine
 10
41.386449
 20
170.969926
 30
0.0
 11
44.458957
 21
171.308923
 31
0.0
  0
LINE
  5
172
100
AcDbEntity
  8
LINE_ART
 62
     7
100
AcDbLine
 10
65.496088
 20
171.308923
 30
0.0
 11
44.458957
 21
171.308923
 31
0.0
  0
LINE
  5
171
100
AcDbEntity
  8
LINE_ART
 62
     7
100
AcDbLine
 10
38.505143
 20
173.529976
 30
0.0
 11
38.142547
 21
218.482616
 31
0.0
  0
INSERT
  5
16D
100
AcDbEntity
  8
LINE_ART
 62
     7
100
AcDbBlockReference
  2
AI9-BLK38
 10
65.926984
 20
223.346574
 30
0.0
  0
LINE
  5
16B
100
AcDbEntity
  8
LINE_ART
 62
     7
100
AcDbLine
 10
37.527253
 20
170.19099
 30
0.0
 11
37.897945
 21
219.398839
 31
0.0
  0
LINE
  5
16A
100
AcDbEntity
  8
LINE_ART
 62
     7
100
AcDbLine
 10
91.782339
 20
167.62715
 30
0.0
 11
91.76787
 21
167.62715
 31
0.0
  0
LINE
  5
169
100
AcDbEntity
  8
LINE_ART
 62
     7
100
AcDbLine
 10
158.070627
 20
220.87179
 30
0.0
 11
158.070627
 21
223.603234
 31
0.0
  0
LINE
  5
168
100
AcDbEntity
  8
LINE_ART
 62
     7
100
AcDbLine
 10
158.070627
 20
220.87179
 30
0.0
 11
154.705802
 21
219.745416
 31
0.0
  0
LINE
  5
167
100
AcDbEntity
  8
LINE_ART
  6
AI9-LTYPE1
 62
     7
100
AcDbLine
 10
162.657427
 20
221.749428
 30
0.0
 11
158.070627
 21
220.87179
 31
0.0
  0
LINE
  5
165
100
AcDbEntity
  8
LINE_ART
 62
     7
100
AcDbLine
 10
152.427216
 20
169.465453
 30
0.0
 11
136.692087
 21
171.526653
 31
0.0
  0
LINE
  5
164
100
AcDbEntity
  8
LINE_ART
 62
     7
100
AcDbLine
 10
162.657427
 20
167.62715
 30
0.0
 11
152.427216
 21
169.465453
 31
0.0
  0
INSERT
  5
160
100
AcDbEntity
  8
LINE_ART
 62
     7
100
AcDbBlockReference
  2
AI9-BLK37
 10
139.795601
 20
193.845102
 30
0.0
  0
INSERT
  5
15B
100
AcDbEntity
  8
LINE_ART
 62
     7
100
AcDbBlockReference
  2
AI9-BLK36
 10
150.570827
 20
195.812079
 30
0.0
  0
LINE
  5
159
100
AcDbEntity
  8
LINE_ART
 62
     7
100
AcDbLine
 10
162.657427
 20
224.506882
 30
0.0
 11
162.657427
 21
167.62715
 31
0.0
  0
INSERT
  5
153
100
AcDbEntity
  8
TEXT
 62
     7
100
AcDbBlockReference
  2
AI9-BLK35
 10
139.07506
 20
164.133134
 30
0.0
  0
INSERT
  5
14D
100
AcDbEntity
  8
TEXT
 62
     7
100
AcDbBlockReference
  2
AI9-BLK34
 10
159.182015
 20
164.131067
 30
0.0
  0
LINE
  5
14B
100
AcDbEntity
  8
TEXT
 62
     7
100
AcDbLine
 10
135.82289
 20
180.260659
 30
0.0
 11
135.82289
 21
162.512906
 31
0.0
  0
LINE
  5
14A
100
AcDbEntity
  8
TEXT
 62
     7
100
AcDbLine
 10
162.769737
 20
162.748206
 30
0.0
 11
162.769737
 21
162.395428
 31
0.0
  0
LINE
  5
149
100
AcDbEntity
  8
TEXT
 62
     7
100
AcDbLine
 10
162.769737
 20
166.954323
 30
0.0
 11
162.769737
 21
162.748206
 31
0.0
  0
MTEXT
  5
148
100
AcDbEntity
  8
TEXT
 62
     7
100
AcDbMText
 10
167.932558
 20
170.834206
 30
0.0
 40
2.624835
 41
0.0
 71
     1
 72
     2
  1
\fHelvetica|b0|i0;35mm
  7
STD
210
0.0
220
0.0
230
1.0
 11
1.000001
 21
0.0
 31
0.0
  0
MTEXT
  5
147
100
AcDbEntity
  8
TEXT
 62
     7
100
AcDbMText
 10
167.205642
 20
174.361983
 30
0.0
 40
2.624835
 41
0.0
 71
     1
 72
     2
  1
\fHelvetica|b0|i0;1-7/16"
  7
STD
210
0.0
220
0.0
230
1.0
 11
1.000001
 21
0.0
 31
0.0
  0
LINE
  5
146
100
AcDbEntity
  8
TEXT
 62
     7
100
AcDbLine
 10
163.599316
 20
167.606824
 30
0.0
 11
178.534494
 21
167.606824
 31
0.0
  0
LINE
  5
145
100
AcDbEntity
  8
TEXT
 62
     7
100
AcDbLine
 10
168.0993
 20
175.072001
 30
0.0
 11
187.589583
 21
175.072001
 31
0.0
  0
MTEXT
  5
144
100
AcDbEntity
  8
TEXT
 62
     7
100
AcDbMText
 10
99.783401
 20
155.46908
 30
0.0
 40
2.624835
 41
0.0
 71
     1
 72
     2
  1
\fHelvetica|b0|i0;25mm
  7
STD
210
0.0
220
0.0
230
1.0
 11
1.000001
 21
0.0
 31
0.0
  0
MTEXT
  5
143
100
AcDbEntity
  8
TEXT
 62
     7
100
AcDbMText
 10
99.056831
 20
159.702413
 30
0.0
 40
2.624835
 41
0.0
 71
     1
 72
     2
  1
\fHelvetica|b0|i0;1-1/16"
  7
STD
210
0.0
220
0.0
230
1.0
 11
1.000001
 21
0.0
 31
0.0
  0
INSERT
  5
13E
100
AcDbEntity
  8
TEXT
 62
     7
100
AcDbBlockReference
  2
AI9-BLK33
 10
96.496091
 20
158.16709
 30
0.0
  0
INSERT
  5
138
100
AcDbEntity
  8
TEXT
 62
     7
100
AcDbBlockReference
  2
AI9-BLK32
 10
77.734618
 20
158.018951
 30
0.0
  0
LINE
  5
136
100
AcDbEntity
  8
TEXT
 62
     7
100
AcDbLine
 10
94.439541
 20
167.224418
 30
0.0
 11
94.439541
 21
152.396727
 31
0.0
  0
LINE
  5
135
100
AcDbEntity
  8
TEXT
 62
     7
100
AcDbLine
 10
88.921876
 20
161.291964
 30
0.0
 11
88.921876
 21
155.721933
 31
0.0
  0
MTEXT
  5
134
100
AcDbEntity
  8
TEXT
 62
     7
100
AcDbMText
 10
70.967072
 20
146.802942
 30
0.0
 40
2.624835
 41
0.0
 71
     1
 72
     2
  1
\fHelvetica|b0|i0;280mm
  7
STD
210
0.0
220
0.0
230
1.0
 11
1.000001
 21
0.0
 31
0.0
  0
MTEXT
  5
133
100
AcDbEntity
  8
TEXT
 62
     7
100
AcDbMText
 10
69.259683
 20
151.036275
 30
0.0
 40
2.624835
 41
0.0
 71
     1
 72
     2
  1
\fHelvetica|b0|i0;10-15/16"
  7
STD
210
0.0
220
0.0
230
1.0
 11
1.000001
 21
0.0
 31
0.0
  0
INSERT
  5
12C
100
AcDbEntity
  8
TEXT
 62
     7
100
AcDbBlockReference
  2
AI9-BLK31
 10
65.895719
 20
149.412241
 30
0.0
  0
LINE
  5
12A
100
AcDbEntity
  8
TEXT
 62
     7
100
AcDbLine
 10
94.439541
 20
167.224418
 30
0.0
 11
94.439541
 21
146.990683
 31
0.0
  0
LINE
  5
129
100
AcDbEntity
  8
TEXT
 62
     7
100
AcDbLine
 10
37.639907
 20
167.224418
 30
0.0
 11
37.639907
 21
147.078878
 31
0.0
  0
MTEXT
  5
128
100
AcDbEntity
  8
TEXT
 62
     7
100
AcDbMText
 10
52.241945
 20
155.263408
 30
0.0
 40
2.624835
 41
0.0
 71
     1
 72
     2
  1
\fHelvetica|b0|i0;225mm
  7
STD
210
0.0
220
0.0
230
1.0
 11
1.000001
 21
0.0
 31
0.0
  0
MTEXT
  5
127
100
AcDbEntity
  8
TEXT
 62
     7
100
AcDbMText
 10
51.515202
 20
159.496741
 30
0.0
 40
2.624835
 41
0.0
 71
     1
 72
     2
  1
\fHelvetica|b0|i0;8-13/16"
  7
STD
210
0.0
220
0.0
230
1.0
 11
1.000001
 21
0.0
 31
0.0
  0
INSERT
  5
122
100
AcDbEntity
  8
TEXT
 62
     7
100
AcDbBlockReference
  2
AI9-BLK30
 10
46.891022
 20
158.020329
 30
0.0
  0
LINE
  5
120
100
AcDbEntity
  8
TEXT
 62
     7
100
AcDbLine
 10
88.921876
 20
161.291964
 30
0.0
 11
88.921876
 21
155.986517
 31
0.0
  0
LINE
  5
11F
100
AcDbEntity
  8
TEXT
 62
     7
100
AcDbLine
 10
43.157917
 20
161.291964
 30
0.0
 11
43.157917
 21
155.898322
 31
0.0
  0
MTEXT
  5
11E
100
AcDbEntity
  8
TEXT
 62
     7
100
AcDbMText
 10
101.294076
 20
230.733047
 30
0.0
 40
2.624835
 41
0.0
 71
     1
 72
     2
  1
\fHelvetica|b0|i0;35mm
  7
STD
210
0.0
220
0.0
230
1.0
 11
1.000001
 21
0.0
 31
0.0
  0
MTEXT
  5
11D
100
AcDbEntity
  8
TEXT
 62
     7
100
AcDbMText
 10
100.567505
 20
234.966381
 30
0.0
 40
2.624835
 41
0.0
 71
     1
 72
     2
  1
\fHelvetica|b0|i0;1-7/16"
  7
STD
210
0.0
220
0.0
230
1.0
 11
1.000001
 21
0.0
 31
0.0
  0
LINE
  5
11C
100
AcDbEntity
  8
TEXT
 62
     7
100
AcDbLine
 10
94.068849
 20
221.971809
 30
0.0
 11
94.068849
 21
234.58482
 31
0.0
  0
LINE
  5
11B
100
AcDbEntity
  8
TEXT
 62
     7
100
AcDbLine
 10
86.603844
 20
229.922055
 30
0.0
 11
86.603844
 21
234.58482
 31
0.0
  0
MTEXT
  5
11A
100
AcDbEntity
  8
TEXT
 62
     7
100
AcDbMText
 10
67.411906
 20
230.350986
 30
0.0
 40
2.624835
 41
0.0
 71
     1
 72
     2
  1
\fHelvetica|b0|i0;200mm
  7
STD
210
0.0
220
0.0
230
1.0
 11
1.000001
 21
0.0
 31
0.0
  0
MTEXT
  5
119
100
AcDbEntity
  8
TEXT
 62
     7
100
AcDbMText
 10
68.646628
 20
234.58432
 30
0.0
 40
2.624835
 41
0.0
 71
     1
 72
     2
  1
\fHelvetica|b0|i0;7-7/8"
  7
STD
210
0.0
220
0.0
230
1.0
 11
1.000001
 21
0.0
 31
0.0
  0
INSERT
  5
114
100
AcDbEntity
  8
TEXT
 62
     7
100
AcDbBlockReference
  2
AI9-BLK29
 10
82.63139
 20
233.311857
 30
0.0
  0
INSERT
  5
10E
100
AcDbEntity
  8
TEXT
 62
     7
100
AcDbBlockReference
  2
AI9-BLK28
 10
56.475967
 20
233.313924
 30
0.0
  0
LINE
  5
10C
100
AcDbEntity
  8
TEXT
 62
     7
100
AcDbLine
 10
86.603844
 20
229.922055
 30
0.0
 11
86.603844
 21
234.58482
 31
0.0
  0
LINE
  5
10B
100
AcDbEntity
  8
TEXT
 62
     7
100
AcDbLine
 10
45.708321
 20
229.922055
 30
0.0
 11
45.708321
 21
234.58482
 31
0.0
  0
MTEXT
  5
10A
100
AcDbEntity
  8
TEXT
 62
     7
100
AcDbMText
 10
53.092883
 20
239.331833
 30
0.0
 40
2.624835
 41
0.0
 71
     1
 72
     2
  1
\fHelvetica|b0|i0;275mm
  7
STD
210
0.0
220
0.0
230
1.0
 11
1.000001
 21
0.0
 31
0.0
  0
MTEXT
  5
109
100
AcDbEntity
  8
TEXT
 62
     7
100
AcDbMText
 10
51.385494
 20
243.565167
 30
0.0
 40
2.624835
 41
0.0
 71
     1
 72
     2
  1
\fHelvetica|b0|i0;10-13/16"
  7
STD
210
0.0
220
0.0
230
1.0
 11
1.000001
 21
0.0
 31
0.0
  0
INSERT
  5
104
100
AcDbEntity
  8
TEXT
 62
     7
100
AcDbBlockReference
  2
AI9-BLK27
 10
81.366437
 20
242.028379
 30
0.0
  0
INSERT
  5
FE
100
AcDbEntity
  8
TEXT
 62
     7
100
AcDbBlockReference
  2
AI9-BLK26
 10
43.719554
 20
242.030274
 30
0.0
  0
LINE
  5
FC
100
AcDbEntity
  8
TEXT
 62
     7
100
AcDbLine
 10
94.068849
 20
221.971809
 30
0.0
 11
94.068849
 21
243.389278
 31
0.0
  0
LINE
  5
FB
100
AcDbEntity
  8
TEXT
 62
     7
100
AcDbLine
 10
38.0106
 20
221.971809
 30
0.0
 11
38.0106
 21
243.389278
 31
0.0
  0
MTEXT
  5
FA
100
AcDbEntity
  8
TEXT
 62
     7
100
AcDbMText
 10
184.448345
 20
144.692185
 30
0.0
 40
2.335499
 41
0.0
 71
     1
 72
     2
  1
\fHelvetica|b0|i0;
  7
STD
210
0.0
220
0.0
230
1.0
 11
1.000001
 21
0.0
 31
0.0
  0
MTEXT
  5
F9
100
AcDbEntity
  8
TEXT
 62
     7
100
AcDbMText
 10
177.553331
 20
148.898646
 30
0.0
 40
2.335499
 41
0.0
 71
     1
 72
     2
  1
\fHelvetica|b0|i0;
  7
STD
210
0.0
220
0.0
230
1.0
 11
1.000001
 21
0.0
 31
0.0
  0
MTEXT
  5
F8
100
AcDbEntity
  8
TEXT
 62
     7
100
AcDbMText
 10
170.942193
 20
144.460622
 30
0.0
 40
2.624835
 41
0.0
 71
     1
 72
     2
  1
\fHelvetica|b0|i0;Height Off Floor
  7
STD
210
0.0
220
0.0
230
1.0
 11
1.000001
 21
0.0
 31
0.0
  0
MTEXT
  5
F7
100
AcDbEntity
  8
TEXT
 62
     7
100
AcDbMText
 10
176.137052
 20
148.693955
 30
0.0
 40
2.624835
 41
0.0
 71
     1
 72
     2
  1
\fHelvetica|b0|i0;Mounting
  7
STD
210
0.0
220
0.0
230
1.0
 11
1.000001
 21
0.0
 31
0.0
  0
MTEXT
  5
F6
100
AcDbEntity
  8
TEXT
 62
     7
100
AcDbMText
 10
171.432775
 20
152.927288
 30
0.0
 40
2.624835
 41
0.0
 71
     1
 72
     2
  1
\fHelvetica|b0|i0;Recommended
  7
STD
210
0.0
220
0.0
230
1.0
 11
1.000001
 21
0.0
 31
0.0
  0
MTEXT
  5
F5
100
AcDbEntity
  8
TEXT
 62
     7
100
AcDbMText
 10
181.33329
 20
157.160622
 30
0.0
 40
2.624835
 41
0.0
 71
     1
 72
     2
  1
\fHelvetica|b0|i0;for
  7
STD
210
0.0
220
0.0
230
1.0
 11
1.000001
 21
0.0
 31
0.0
  0
MTEXT
  5
F4
100
AcDbEntity
  8
TEXT
 62
     7
100
AcDbMText
 10
175.351915
 20
161.393955
 30
0.0
 40
2.624835
 41
0.0
 71
     1
 72
     2
  1
\fHelvetica|b0|i0;See Table
  7
STD
210
0.0
220
0.0
230
1.0
 11
1.000001
 21
0.0
 31
0.0
  0
INSERT
  5
ED
100
AcDbEntity
  8
TEXT
 62
     7
100
AcDbBlockReference
  2
AI9-BLK25
 10
183.629963
 20
155.25297
 30
0.0
  0
LINE
  5
EB
100
AcDbEntity
  8
TEXT
 62
     7
100
AcDbLine
 10
192.419607
 20
135.39432
 30
0.0
 11
190.663987
 21
135.39432
 31
0.0
  0
LINE
  5
EA
100
AcDbEntity
  8
TEXT
 62
     7
100
AcDbLine
 10
193.309131
 20
135.39432
 30
0.0
 11
195.321756
 21
133.055789
 31
0.0
  0
LINE
  5
E9
100
AcDbEntity
  8
TEXT
 62
     7
100
AcDbLine
 10
188.002995
 20
135.39432
 30
0.0
 11
190.01562
 21
133.055789
 31
0.0
  0
LINE
  5
E8
100
AcDbEntity
  8
TEXT
 62
     7
100
AcDbLine
 10
190.748047
 20
135.39432
 30
0.0
 11
192.760672
 21
133.055789
 31
0.0
  0
LINE
  5
E7
100
AcDbEntity
  8
TEXT
 62
     7
100
AcDbLine
 10
171.365251
 20
135.39432
 30
0.0
 11
173.377875
 21
133.055789
 31
0.0
  0
LINE
  5
E6
100
AcDbEntity
  8
TEXT
 62
     7
100
AcDbLine
 10
166.059115
 20
135.39432
 30
0.0
 11
168.071739
 21
133.055789
 31
0.0
  0
LINE
  5
E5
100
AcDbEntity
  8
TEXT
 62
     7
100
AcDbLine
 10
168.803478
 20
135.39432
 30
0.0
 11
170.816102
 21
133.055789
 31
0.0
  0
LINE
  5
E4
100
AcDbEntity
  8
TEXT
 62
     7
100
AcDbLine
 10
151.383697
 20
135.39432
 30
0.0
 11
153.396322
 21
133.055789
 31
0.0
  0
LINE
  5
E3
100
AcDbEntity
  8
TEXT
 62
     7
100
AcDbLine
 10
148.821924
 20
135.39432
 30
0.0
 11
150.834549
 21
133.055789
 31
0.0
  0
LINE
  5
E2
100
AcDbEntity
  8
TEXT
 62
     7
100
AcDbLine
 10
146.077561
 20
135.39432
 30
0.0
 11
148.090186
 21
133.055789
 31
0.0
  0
LINE
  5
E1
100
AcDbEntity
  8
TEXT
 62
     7
100
AcDbLine
 10
142.834348
 20
135.39432
 30
0.0
 11
197.153857
 21
135.39432
 31
0.0
  0
MTEXT
  5
E0
100
AcDbEntity
  8
TEXT
 62
     7
100
AcDbMText
 10
132.548326
 20
230.222829
 30
0.0
 40
2.624835
 41
0.0
 71
     1
 72
     2
  1
\fHelvetica|b0|i0;Cover
  7
STD
210
0.0
220
0.0
230
1.0
 11
1.000001
 21
0.0
 31
0.0
  0
INSERT
  5
DC
100
AcDbEntity
  8
TEXT
 62
     7
100
AcDbBlockReference
  2
AI9-BLK24
 10
144.307126
 20
228.327148
 30
0.0
  0
INSERT
  5
D6
100
AcDbEntity
  8
TEXT
 62
     7
100
AcDbBlockReference
  2
AI9-BLK23
 10
148.955766
 20
224.511877
 30
0.0
  0
MTEXT
  5
D4
100
AcDbEntity
  8
TEXT
 62
     7
100
AcDbMText
 10
127.719336
 20
238.323282
 30
0.0
 40
2.624835
 41
0.0
 71
     1
 72
     2
  1
\fHelvetica|b0|i0;Mounting Base
  7
STD
210
0.0
220
0.0
230
1.0
 11
1.000001
 21
0.0
 31
0.0
  0
INSERT
  5
D0
100
AcDbEntity
  8
TEXT
 62
     7
100
AcDbBlockReference
  2
AI9-BLK22
 10
156.561675
 20
236.602268
 30
0.0
  0
INSERT
  5
CB
100
AcDbEntity
  8
TEXT
 62
     7
100
AcDbBlockReference
  2
AI9-BLK21
 10
164.760141
 20
233.749729
 30
0.0
  0
INSERT
  5
C5
100
AcDbEntity
  8
TEXT
 62
     7
100
AcDbBlockReference
  2
AI9-BLK20
 10
166.847869
 20
224.442287
 30
0.0
  0
MTEXT
  5
C3
100
AcDbEntity
  8
TEXT
 62
     7
100
AcDbMText
 10
119.83868
 20
244.280541
 30
0.0
 40
2.624835
 41
0.0
 71
     1
 72
     2
  1
\fHelvetica|b0|i0;Inside Rear of Cabinet
  7
STD
210
0.0
220
0.0
230
1.0
 11
1.000001
 21
0.0
 31
0.0
  0
INSERT
  5
BE
100
AcDbEntity
  8
TEXT
 62
     7
100
AcDbBlockReference
  2
AI9-BLK19
 10
159.1641
 20
242.489591
 30
0.0
  0
LINE
  5
BC
100
AcDbEntity
  8
TEXT
 62
     7
100
AcDbLine
 10
162.887215
 20
242.344553
 30
0.0
 11
166.163501
 21
245.225686
 31
0.0
  0
LINE
  5
BB
100
AcDbEntity
  8
TEXT
 62
     7
100
AcDbLine
 10
162.887215
 20
239.264638
 30
0.0
 11
166.163501
 21
242.145771
 31
0.0
  0
LINE
  5
BA
100
AcDbEntity
  8
TEXT
 62
     7
100
AcDbLine
 10
162.886871
 20
236.768838
 30
0.0
 11
166.163156
 21
239.649972
 31
0.0
  0
LINE
  5
B9
100
AcDbEntity
  8
TEXT
 62
     7
100
AcDbLine
 10
162.769737
 20
225.840995
 30
0.0
 11
162.769737
 21
244.963342
 31
0.0
  0
INSERT
  5
B5
100
AcDbEntity
  8
TEXT
 62
     7
100
AcDbBlockReference
  2
AI9-BLK18
 10
102.563076
 20
215.735841
 30
0.0
  0
INSERT
  5
AF
100
AcDbEntity
  8
TEXT
 62
     7
100
AcDbBlockReference
  2
AI9-BLK17
 10
94.898514
 20
205.615012
 30
0.0
  0
MTEXT
  5
AD
100
AcDbEntity
  8
TEXT
 62
     7
100
AcDbMText
 10
96.732941
 20
207.100606
 30
0.0
 40
2.335499
 41
0.0
 71
     1
 72
     2
  1
\fHelvetica|b0|i0;
  7
STD
210
0.0
220
0.0
230
1.0
 11
1.000001
 21
0.0
 31
0.0
  0
MTEXT
  5
AC
100
AcDbEntity
  8
TEXT
 62
     7
100
AcDbMText
 10
98.414492
 20
210.152444
 30
0.0
 40
2.335499
 41
0.0
 71
     1
 72
     2
  1
\fHelvetica|b0|i0;
  7
STD
210
0.0
220
0.0
230
1.0
 11
1.000001
 21
0.0
 31
0.0
  0
MTEXT
  5
AB
100
AcDbEntity
  8
TEXT
 62
     7
100
AcDbMText
 10
105.792853
 20
213.652489
 30
0.0
 40
2.335499
 41
0.0
 71
     1
 72
     2
  1
\fHelvetica|b0|i0;
  7
STD
210
0.0
220
0.0
230
1.0
 11
1.000001
 21
0.0
 31
0.0
  0
MTEXT
  5
AA
100
AcDbEntity
  8
TEXT
 62
     7
100
AcDbMText
 10
104.096833
 20
199.964899
 30
0.0
 40
2.624835
 41
0.0
 71
     1
 72
     2
  1
\fHelvetica|b0|i0;Wiring
  7
STD
210
0.0
220
0.0
230
1.0
 11
1.000001
 21
0.0
 31
0.0
  0
MTEXT
  5
A9
100
AcDbEntity
  8
TEXT
 62
     7
100
AcDbMText
 10
95.665479
 20
204.198233
 30
0.0
 40
2.624835
 41
0.0
 71
     1
 72
     2
  1
\fHelvetica|b0|i0;for Between-Wall
  7
STD
210
0.0
220
0.0
230
1.0
 11
1.000001
 21
0.0
 31
0.0
  0
MTEXT
  5
A8
100
AcDbEntity
  8
TEXT
 62
     7
100
AcDbMText
 10
97.822625
 20
208.431566
 30
0.0
 40
2.624835
 41
0.0
 71
     1
 72
     2
  1
\fHelvetica|b0|i0;Diameter Hole
  7
STD
210
0.0
220
0.0
230
1.0
 11
1.000001
 21
0.0
 31
0.0
  0
MTEXT
  5
A7
100
AcDbEntity
  8
TEXT
 62
     7
100
AcDbMText
 10
104.19364
 20
212.664899
 30
0.0
 40
2.624835
 41
0.0
 71
     1
 72
     2
  1
\fHelvetica|b0|i0;19mm
  7
STD
210
0.0
220
0.0
230
1.0
 11
1.000001
 21
0.0
 31
0.0
  0
MTEXT
  5
A6
100
AcDbEntity
  8
TEXT
 62
     7
100
AcDbMText
 10
106.015751
 20
216.898233
 30
0.0
 40
2.624835
 41
0.0
 71
     1
 72
     2
  1
\fHelvetica|b0|i0;3/4"
  7
STD
210
0.0
220
0.0
230
1.0
 11
1.000001
 21
0.0
 31
0.0
  0
MTEXT
  5
A5
100
AcDbEntity
  8
TEXT
 62
     7
100
AcDbMText
 10
116.649555
 20
143.119843
 30
0.0
 40
2.335499
 41
0.0
 71
     1
 72
     2
  1
\fHelvetica|b0|i0;
  7
STD
210
0.0
220
0.0
230
1.0
 11
1.000001
 21
0.0
 31
0.0
  0
MTEXT
  5
A4
100
AcDbEntity
  8
TEXT
 62
     7
100
AcDbMText
 10
130.046153
 20
147.088938
 30
0.0
 40
2.335499
 41
0.0
 71
     1
 72
     2
  1
\fHelvetica|b0|i0;
  7
STD
210
0.0
220
0.0
230
1.0
 11
1.000001
 21
0.0
 31
0.0
  0
MTEXT
  5
A3
100
AcDbEntity
  8
TEXT
 62
     7
100
AcDbMText
 10
115.553326
 20
143.918019
 30
0.0
 40
2.624835
 41
0.0
 71
     1
 72
     2
  1
\fHelvetica|b0|i0;Opening for Surface Wiring
  7
STD
210
0.0
220
0.0
230
1.0
 11
1.000001
 21
0.0
 31
0.0
  0
MTEXT
  5
A2
100
AcDbEntity
  8
TEXT
 62
     7
100
AcDbMText
 10
128.101742
 20
148.151352
 30
0.0
 40
2.624835
 41
0.0
 71
     1
 72
     2
  1
\fHelvetica|b0|i0;16 x 14mm
  7
STD
210
0.0
220
0.0
230
1.0
 11
1.000001
 21
0.0
 31
0.0
  0
MTEXT
  5
A1
100
AcDbEntity
  8
TEXT
 62
     7
100
AcDbMText
 10
127.826478
 20
152.384686
 30
0.0
 40
2.624835
 41
0.0
 71
     1
 72
     2
  1
\fHelvetica|b0|i0;5/8" x 9/16"
  7
STD
210
0.0
220
0.0
230
1.0
 11
1.000001
 21
0.0
 31
0.0
  0
INSERT
  5
9D
100
AcDbEntity
  8
TEXT
 62
     7
100
AcDbBlockReference
  2
AI9-BLK16
 10
152.756912
 20
150.805438
 30
0.0
  0
INSERT
  5
97
100
AcDbEntity
  8
TEXT
 62
     7
100
AcDbBlockReference
  2
AI9-BLK15
 10
159.433162
 20
159.468302
 30
0.0
  0
MTEXT
  5
95
100
AcDbEntity
  8
TEXT
 62
     7
100
AcDbMText
 10
101.284429
 20
164.556897
 30
0.0
 40
2.624835
 41
0.0
 71
     1
 72
     2
  1
\fHelvetica|b0|i0;Wire Opening
  7
STD
210
0.0
220
0.0
230
1.0
 11
1.000001
 21
0.0
 31
0.0
  0
INSERT
  5
8D
100
AcDbEntity
  8
TEXT
 62
     7
100
AcDbBlockReference
  2
AI9-BLK13
 10
98.116578
 20
163.040694
 30
0.0
  0
INSERT
  5
83
100
AcDbEntity
  8
TEXT
 62
     7
100
AcDbBlockReference
  2
AI9-BLK11
 10
92.685988
 20
165.608238
 30
0.0
  0
MTEXT
  5
81
100
AcDbEntity
  8
TEXT
 62
     7
100
AcDbMText
 10
20.542243
 20
197.735406
 30
0.0
 40
2.624835
 41
0.0
 71
     1
 72
     2
  1
\fHelvetica|b0|i0;280mm
  7
STD
210
0.0
220
0.0
230
1.0
 11
1.000001
 21
0.0
 31
0.0
  0
MTEXT
  5
80
100
AcDbEntity
  8
TEXT
 62
     7
100
AcDbMText
 10
18.834854
 20
201.968739
 30
0.0
 40
2.624835
 41
0.0
 71
     1
 72
     2
  1
\fHelvetica|b0|i0;10-15/16"
  7
STD
210
0.0
220
0.0
230
1.0
 11
1.000001
 21
0.0
 31
0.0
  0
INSERT
  5
7B
100
AcDbEntity
  8
TEXT
 62
     7
100
AcDbBlockReference
  2
AI9-BLK10
 10
26.187032
 20
180.152397
 30
0.0
  0
INSERT
  5
75
100
AcDbEntity
  8
TEXT
 62
     7
100
AcDbBlockReference
  2
AI9-BLK9
 10
26.189013
 20
213.911577
 30
0.0
  0
LINE
  5
73
100
AcDbEntity
  8
TEXT
 62
     7
100
AcDbLine
 10
37.414771
 20
167.430435
 30
0.0
 11
22.695428
 21
167.430435
 31
0.0
  0
LINE
  5
72
100
AcDbEntity
  8
TEXT
 62
     7
100
AcDbLine
 10
52.108103
 20
224.307411
 30
0.0
 11
22.813078
 21
224.307411
 31
0.0
  0
MTEXT
  5
71
100
AcDbEntity
  8
TEXT
 62
     7
100
AcDbMText
 10
95.093593
 20
181.493331
 30
0.0
 40
2.624835
 41
0.0
 71
     1
 72
     2
  1
\fHelvetica|b0|i0;125mm
  7
STD
210
0.0
220
0.0
230
1.0
 11
1.000001
 21
0.0
 31
0.0
  0
MTEXT
  5
70
100
AcDbEntity
  8
TEXT
 62
     7
100
AcDbMText
 10
99.367406
 20
185.726664
 30
0.0
 40
2.624835
 41
0.0
 71
     1
 72
     2
  1
\fHelvetica|b0|i0;5"
  7
STD
210
0.0
220
0.0
230
1.0
 11
1.000001
 21
0.0
 31
0.0
  0
INSERT
  5
6B
100
AcDbEntity
  8
TEXT
 62
     7
100
AcDbBlockReference
  2
AI9-BLK8
 10
100.798843
 20
190.380025
 30
0.0
  0
INSERT
  5
65
100
AcDbEntity
  8
TEXT
 62
     7
100
AcDbBlockReference
  2
AI9-BLK7
 10
100.796776
 20
172.469231
 30
0.0
  0
LINE
  5
63
100
AcDbEntity
  8
TEXT
 62
     7
100
AcDbLine
 10
94.810234
 20
194.044831
 30
0.0
 11
104.891789
 21
194.044831
 31
0.0
  0
LINE
  5
62
100
AcDbEntity
  8
TEXT
 62
     7
100
AcDbLine
 10
94.664678
 20
167.430435
 30
0.0
 11
104.891789
 21
167.430435
 31
0.0
  0
MTEXT
  5
61
100
AcDbEntity
  8
TEXT
 62
     7
100
AcDbMText
 10
143.195394
 20
161.352269
 30
0.0
 40
2.624835
 41
0.0
 71
     1
 72
     2
  1
\fHelvetica|b0|i0;130mm
  7
STD
210
0.0
220
0.0
230
1.0
 11
1.000001
 21
0.0
 31
0.0
  0
MTEXT
  5
60
100
AcDbEntity
  8
TEXT
 62
     7
100
AcDbMText
 10
143.449297
 20
165.585603
 30
0.0
 40
2.624835
 41
0.0
 71
     1
 72
     2
  1
\fHelvetica|b0|i0;5-3/16"
  7
STD
210
0.0
220
0.0
230
1.0
 11
1.000001
 21
0.0
 31
0.0
  0
MTEXT
  5
5F
100
AcDbEntity
  8
TEXT
 62
     7
100
AcDbMText
 10
180.640826
 20
161.299267
 30
0.0
 40
2.335499
 41
0.0
 71
     1
 72
     2
  1
\fHelvetica|b0|i0;
  7
STD
210
0.0
220
0.0
230
1.0
 11
1.000001
 21
0.0
 31
0.0
  0
MTEXT
  5
5E
100
AcDbEntity
  8
TEXT
 62
     7
100
AcDbMText
 10
180.560555
 20
200.320433
 30
0.0
 40
2.624835
 41
0.0
 71
     1
 72
     2
  1
\fHelvetica|b0|i0;Typ.
  7
STD
210
0.0
220
0.0
230
1.0
 11
1.000001
 21
0.0
 31
0.0
  0
MTEXT
  5
5D
100
AcDbEntity
  8
TEXT
 62
     7
100
AcDbMText
 10
178.110403
 20
204.553767
 30
0.0
 40
2.624835
 41
0.0
 71
     1
 72
     2
  1
\fHelvetica|b0|i0;205mm
  7
STD
210
0.0
220
0.0
230
1.0
 11
1.000001
 21
0.0
 31
0.0
  0
MTEXT
  5
5C
100
AcDbEntity
  8
TEXT
 62
     7
100
AcDbMText
 10
178.364307
 20
208.7871
 30
0.0
 40
2.624835
 41
0.0
 71
     1
 72
     2
  1
\fHelvetica|b0|i0;8-1/16"
  7
STD
210
0.0
220
0.0
230
1.0
 11
1.000001
 21
0.0
 31
0.0
  0
INSERT
  5
57
100
AcDbEntity
  8
TEXT
 62
     7
100
AcDbBlockReference
  2
AI9-BLK6
 10
183.66872
 20
213.501352
 30
0.0
  0
INSERT
  5
51
100
AcDbEntity
  8
TEXT
 62
     7
100
AcDbBlockReference
  2
AI9-BLK5
 10
183.637542
 20
184.984574
 30
0.0
  0
LINE
  5
4F
100
AcDbEntity
  8
TEXT
 62
     7
100
AcDbLine
 10
167.540506
 20
216.999847
 30
0.0
 11
187.736689
 21
216.999847
 31
0.0
  0
MTEXT
  5
4E
100
AcDbEntity
  8
TEXT
 62
     7
100
AcDbMText
 10
167.001348
 20
186.994804
 30
0.0
 40
2.624835
 41
0.0
 71
     1
 72
     2
  1
\fHelvetica|b0|i0;115mm
  7
STD
210
0.0
220
0.0
230
1.0
 11
1.000001
 21
0.0
 31
0.0
  0
MTEXT
  5
4D
100
AcDbEntity
  8
TEXT
 62
     7
100
AcDbMText
 10
168.23607
 20
191.228137
 30
0.0
 40
2.624835
 41
0.0
 71
     1
 72
     2
  1
\fHelvetica|b0|i0;4-1/2"
  7
STD
210
0.0
220
0.0
230
1.0
 11
1.000001
 21
0.0
 31
0.0
  0
INSERT
  5
48
100
AcDbEntity
  8
TEXT
 62
     7
100
AcDbBlockReference
  2
AI9-BLK4
 10
172.706426
 20
194.990854
 30
0.0
  0
INSERT
  5
42
100
AcDbEntity
  8
TEXT
 62
     7
100
AcDbBlockReference
  2
AI9-BLK3
 10
172.704359
 20
179.296205
 30
0.0
  0
LINE
  5
40
100
AcDbEntity
  8
TEXT
 62
     7
100
AcDbLine
 10
167.54085
 20
198.440773
 30
0.0
 11
175.770839
 21
198.440773
 31
0.0
  0
INSERT
  5
3B
100
AcDbEntity
  8
TEXT
 62
     7
100
AcDbBlockReference
  2
AI9-BLK2
 10
172.706599
 20
166.02518
 30
0.0
  0
MTEXT
  5
39
100
AcDbEntity
  8
TEXT
 62
     7
100
AcDbMText
 10
164.696235
 20
176.437653
 30
0.0
 40
2.624835
 41
0.0
 71
     1
 72
     2
  1
\fHelvetica|b0|i0;S
  7
STD
210
0.0
220
0.0
230
1.0
 11
1.000001
 21
0.0
 31
0.0
  0
MTEXT
  5
38
100
AcDbEntity
  8
TEXT
 62
     7
100
AcDbMText
 10
164.919477
 20
199.751528
 30
0.0
 40
2.335499
 41
0.0
 71
     1
 72
     2
  1
\fHelvetica|b0|i0;S
  7
STD
210
0.0
220
0.0
230
1.0
 11
1.000001
 21
0.0
 31
0.0
  0
MTEXT
  5
37
100
AcDbEntity
  8
TEXT
 62
     7
100
AcDbMText
 10
164.684521
 20
218.365154
 30
0.0
 40
2.624835
 41
0.0
 71
     1
 72
     2
  1
\fHelvetica|b0|i0;S
  7
STD
210
0.0
220
0.0
230
1.0
 11
1.000001
 21
0.0
 31
0.0
  0
MTEXT
  5
36
100
AcDbEntity
  8
TEXT
 62
     7
100
AcDbMText
 10
87.765186
 20
165.126027
 30
0.0
 40
2.624835
 41
0.0
 71
     1
 72
     2
  1
\fHelvetica|b0|i0;S
  7
STD
210
0.0
220
0.0
230
1.0
 11
1.000001
 21
0.0
 31
0.0
  0
MTEXT
  5
35
100
AcDbEntity
  8
TEXT
 62
     7
100
AcDbMText
 10
41.944727
 20
165.126027
 30
0.0
 40
2.624835
 41
0.0
 71
     1
 72
     2
  1
\fHelvetica|b0|i0;S
  7
STD
210
0.0
220
0.0
230
1.0
 11
1.000001
 21
0.0
 31
0.0
  0
LINE
  5
34
100
AcDbEntity
  8
TEXT
 62
     7
100
AcDbLine
 10
43.157917
 20
172.753452
 30
0.0
 11
43.157917
 21
165.851548
 31
0.0
  0
MTEXT
  5
33
100
AcDbEntity
  8
TEXT
 62
     7
100
AcDbMText
 10
85.549645
 20
228.740749
 30
0.0
 40
2.624835
 41
0.0
 71
     1
 72
     2
  1
\fHelvetica|b0|i0;S
  7
STD
210
0.0
220
0.0
230
1.0
 11
1.000001
 21
0.0
 31
0.0
  0
MTEXT
  5
32
100
AcDbEntity
  8
TEXT
 62
     7
100
AcDbMText
 10
44.585048
 20
228.740749
 30
0.0
 40
2.624835
 41
0.0
 71
     1
 72
     2
  1
\fHelvetica|b0|i0;S
  7
STD
210
0.0
220
0.0
230
1.0
 11
1.000001
 21
0.0
 31
0.0
  0
LINE
  5
31
100
AcDbEntity
  8
TEXT
 62
     7
100
AcDbLine
 10
86.603844
 20
219.312539
 30
0.0
 11
86.603844
 21
225.370223
 31
0.0
  0
LINE
  5
30
100
AcDbEntity
  8
TEXT
 62
     7
100
AcDbLine
 10
45.708321
 20
219.312539
 30
0.0
 11
45.708321
 21
225.370223
 31
0.0
  0
LINE
  5
2F
100
AcDbEntity
  8
TEXT
 62
     7
100
AcDbLine
 10
160.789497
 20
216.999847
 30
0.0
 11
163.997569
 21
216.999847
 31
0.0
  0
LINE
  5
2E
100
AcDbEntity
  8
TEXT
 62
     7
100
AcDbLine
 10
160.73093
 20
198.440773
 30
0.0
 11
164.394444
 21
198.554978
 31
0.0
  0
LINE
  5
2D
100
AcDbEntity
  8
TEXT
 62
     7
100
AcDbLine
 10
160.73093
 20
175.072001
 30
0.0
 11
164.292125
 21
175.072001
 31
0.0
  0
LINE
  5
2C
100
AcDbEntity
  8
TEXT
 62
     7
100
AcDbLine
 10
88.921876
 20
199.461899
 30
0.0
 11
88.921876
 21
165.815374
 31
0.0
  0
LINE
  5
2B
100
AcDbEntity
  8
TEXT
 62
     7
100
AcDbLine
 10
91.894994
 20
167.430435
 30
0.0
 11
91.880524
 21
167.430435
 31
0.0
  0
INSERT
  5
26
100
AcDbEntity
  8
TEXT
 62
     7
100
AcDbBlockReference
  2
AI9-BLK1
 10
96.945245
 20
233.304536
 30
0.0
  0
MTEXT
  5
23
100
AcDbEntity
  8
NON_PRINTING_NOTES
 62
     7
100
AcDbMText
 10
41.5103
 20
124.803768
 30
0.0
 40
2.624835
 41
0.0
 71
     1
 72
     2
  1
\fHelvetica|b0|i0;Revised 1/14/02 JA
  7
STD
210
0.0
220
0.0
230
1.0
 11
1.000001
 21
0.0
 31
0.0
  0
MTEXT
  5
22
100
AcDbEntity
  8
NON_PRINTING_NOTES
 62
     7
100
AcDbMText
 10
41.5103
 20
128.331546
 30
0.0
 40
2.624835
 41
0.0
 71
     1
 72
     2
  1
\fHelvetica|b0|i0;815969 td la.eps
  7
STD
210
0.0
220
0.0
230
1.0
 11
1.000001
 21
0.0
 31
0.0
  0
ENDSEC
  0
SECTION
  2
OBJECTS
  0
DICTIONARY
  5
19
100
AcDbDictionary
  3
ACAD_GROUP
350
1A
  3
ACAD_MLINESTYLE
350
1B
  0
DICTIONARY
  5
1A
102
{ACAD_REACTORS
330
19
102
}
100
AcDbDictionary
  0
DICTIONARY
  5
1B
102
{ACAD_REACTORS
330
19
102
}
100
AcDbDictionary
  3
STANDARD
350
1C
  0
MLINESTYLE
  5
1C
102
{ACAD_REACTORS
330
1B
102
}
100
AcDbMlineStyle
  2
STANDARD
 70
     0
  3

 62
     0
 51
90.0
 52
90.0
 71
     2
 49
0.5
 62
   256
  6
BYLAYER
 49
-0.5
 62
   256
  6
BYLAYER
  0
ENDSEC
  0
EOF
